Oops, an error
Loading. Please wait.

Sing It Loud - Ive Got A Feeling tab

version 1
version 1

Whole song

633 views 1 this week
no commentswrite comment
1 2 3 4 5
3 more votes to show rating
add to favorites
×
Save as Personal and add changes to this tab that will be seen only by you. Learn more ›
×
You can save this tab as Personal to edit and correct it or add notes. All changes will be seen only by you. Learn more »
launch autoscroll
font size
0
reset
how to read this tab
guitar tuner
edit
Autoscroll
slow
fast
+/-
esc
set tempo
stop
cool song

capo on 1st, you dont need it but it makes the solo easier

Intro
|-----------------|------------------|
|-----------------|------------------|
|-----------------|------------------| x2
|10---33--55--77--|1010--33--55--5555|
|10---33--55--77--|1010--33--55--5555|
|8 ---11--33--55--|8 8 --11--33--3333|

Verse
|--------------------------------|----------------|
|--------------------------------|----------------|
|--------------------------------|----------------|
|10101010101010101010101010101010|5555555555555555|
|10101010101010101010101010101010|5555555555555555|
|8 8 8 8 8 8 8 8 8 8 8 8 8 8 8 8 |3333333333333333|
Starts on the word "feeling"      This one is on "say"

|----------------|----------------|
|----------------|----------------|
|----------------|----------------|
|3333333333333333|5555555555555555|
|3333333333333333|5555555555555555|
|1111111111111111|3333333333333333|
starts on "time"  starts on "stay

Do that twice but make sure the first time is palm muted, and the second time just play 
every once in awhile off beats, in other words just listen to the style.

Prechorus
|--------------------|
|--------------------|
|--------------------|  x2
|333-555-777-10101010|
|333-555-777-10101010|
|111-333-555-8 8 8 8 |
starts when he says "time" on the line "you're wasting time on me"

Chorus
|------------------|------------------|
|------------------|------------------|
|------------------|------------------| x2
|1010--33--55--77--|1010--33--55--5555|
|1010--33--55--77--|1010--33--55--5555|
|8 8 --11--33--55--|8 8 --11--33--3333|
"Tell me doe you still have..."

Verse 2
|----------------|----------------|
|----------------|----------------|
|----------------|----------------|
|----------------|--------555-555-|
|----------------|--------555-555-|
|----------------|--------333-333-|
"and now that all..." come in after "run"

|----------------|----------------|
|----------------|----------------|
|----------------|----------------|
|3-3-3-3-3-3-3-3-|5-5-5-5-5-5-5-5-|
|3-3-3-3-3-3-3-3-|5-5-5-5-5-5-5-5-|
|1-1-1-1-1-1-1-1-|3-3-3-3-3-3-3-3-|

then back to normal verse/verse 1 without palm mute.

Prechorus again

Chorus

Bridge
|----------------|----------------|
|----------------|----------------|
|----------------|----------------| x4
|3333333333333333|5555555555555555|
|3333333333333333|5555555555555555|
|1111111111111111|3333333333333333|
"It time to replace.../ We've got to erase..."

Solo
|------0---1/0---|------0---------|
|--1--1-3-----3/1|--1--1-3--------|
|2---0----2------|2---0-----------|
|----------------|--------555-555-|
|----------------|--------555-555-|
|----------------|--------333-333-|

Chorus 2 times and end on
|--------|
|--------|
|--------|
|10101010|
|10101010|
|8 8 8 8 |

obviously the 10 are tens, not one zeros and use your common sense for the most part, i 
i gave you the key and helped you with timings, so feel free to give five stars :DDDDDD


I've got a feeling you don't care
And everything I say you cannot hear
So celebrate the time we have
'Cause I don't think I can stay for to long

Oh yeah and how could i forget
The complications you have failed to comprehend
I know, i know you're wasting time
you're wasting time on me
Now i can't see

Tell me do you still have pieces of me
'Cause I'm not complete at all
We can try, we can try
But we're never gonna get it right unless we fall

And now that all is said and done
I guess its time turn our backs and run
Away so i can finally take the break that i deserve
Then while were at it we can slowly build this bridge
And burn it to the ground in a matter of ten seconds
She said we gotta get around, baby
She said your wasting time on me

Tell me do you still have pieces of me
'Cause I'm not complete at all
We can try, we can try
But were never gonna get it right unless we fall

It's time to replace all the times we've had
'Cause were never coming back
We've got to erase
I know the cause was clever but I should have known better(X2)

Tell me do you still have pieces of me
'Cause I'm not complete at all
We can try, we can try
But were never gonna get it right unless we fall

http://www.myspace.com/singitloud

            
            
Suggest correction
Creating personal tab
Creating personal tab
You can edit any tab online and save it as your Personal.

You can edit, replace or remove any tab part or add personal notes – all changes will be seen only by you.

Personal tabs can be accessed anytime from any device, even offline.
Learn more »
Give kudos to tab author, rate the tab!
1 2 3 4 5
comments
print report bad tab
guest
You may want to rate the tab now too:
select rating
Wanna post a correction for this tab? Suggest correction