Oops, an error
Loading. Please wait.

Spag Heddy - Here We Go bass

100 views 1 this week
no commentswrite comment
1 2 3 4 5
3 more votes to show rating
add to favorites
×
Save as Personal and add changes to this tab that will be seen only by you. Learn more ›
×
You can save this tab as Personal to edit and correct it or add notes. All changes will be seen only by you. Learn more »
launch autoscroll
font size
0
reset
guitar tuner
edit
Autoscroll
slow
fast
+/-
esc
set tempo
stop
-----------------------------------------------------------------------------------------------------------
                                      SPAG HEDDY - "HERE WE GO"
-----------------------------------------------------------------------------------------------------------

Tabbed by: Hans Lindig
e-mail: hali271298@gmail.com

Tuning: Theoretically, this song is also playable on a 4-string bass in drop D, but it sounds cooler with the
low A string, so if you own a 5-string, tune the fifth string down to A and enjoy! Especially the drop simply
sounds so much more energetic with the really low notes.

Although I've already noted this in the guitar tab, this song has a swinging sixteenth rhythm, so don't be
confused about the timing - two sixteenth after another mean an eighth and a sixteenth within a triplet.

Also I would like to say that apart from the main riff and the verse, this is not the actual bass
accompaniment. However, during the drop, you can hear some very low notes, and also, I wanted a complete
song tab, not just four bars or so - that's why I've tabbed out the drop, too.

Hope you enjoy the tab!

Legend:
3b5   - bend
3bg5  - bend gradually
5r3   - release
5rg3  - release gradually
S     - sixteenth note/rest
E     - eighth note/rest
Q     - quarter note/rest
E./Q. - dotted eighth/quarter

Main riff:
   Q    Q    Q    Q      Q    Q    Q    Q
G|---------------------|---------------------|
D|---------------------|---------------------|
A|---------------------|---------------------|
E|-5----0----5----0----|-1---------3----0----|
A|---------------------|------5--------------|

   Q    Q    Q    Q      Q    Q    Q    Q
G|---------------------|---------------------|
D|---------------------|---------------------|
A|---------------------|---------------------|
E|-5----0----5----0----|------1----3----4----|
A|---------------------|-5-------------------|

Verse/Build-up:
   Q    Q    Q    Q      Q    Q    Q    Q
G|---------------------|---------------------|
D|---------------------|---------------------|
A|---------------------|---------------------|
E|-5----0----5----0----|-5----0----5----0----|
A|---------------------|---------------------|

   Q    Q    Q    Q      E  E  E  E  Q    S S E
G|---------------------|-------------------------|
D|---------------------|-------------------------|
A|---------------------|-------------------------|
E|-5----0----5----0----|-------------------------|
A|---------------------|-0--0--0--0---------0-7--|

DROP:
There are various ways to play the drop. Actually it doesn't have much bass in it. The following tabs are
the most exact imitation of what's going on during the drop, with some mini-flourishes.
If you want, you can just play the main riff, or play the fills that I've also added in this transcription
and mix it up with the main riff. It's also fun to simply improvise around the Am-Dm-Em(-E) progression.

DROP I - Bars 1-2 = bars 5-6
           |----tremolo picking----|
            (or triplet sixteenths)
   Q    Q    H           H        E.  S E  E
G|---------------------|----------------------|
D|-----------7bg=======|=========(9)\---------|
A|---------------------|----------------------|
E|-5----0--------------|-------------------4--|
A|---------------------|--------------0-7-----|

DROP I - Bars 3-4
           |----tremolo picking----|
   Q    Q    H           (H)        E  E  E  E
G|----------------------|-----------------------|
D|-----------3b5rg======|======(3)--------------|
A|----------------------|----------/7--5--3--2--|
E|-5----0---------------|-----------------------|
A|----------------------|-----------------------|

DROP I - Bars 7-8
           |----tremolo picking----|
   Q    Q    H           (H)        E  E  E  E
G|----------------------|-----------------------|
D|-----------3b5rg======|======(3)--------------|
A|----------------------|----------/7-----------|
E|-5----0---------------|--------------5--7--8--|
A|----------------------|-----------------------|

DROP - Bars 9-10
   E  E  E  E  Q    Q      Q.    E  E  E  Q
G|-----------------------|----------------------|
D|-----------------------|----------------------|
A|-----------------------|-------3--5--3--------|
E|-5-----3--5--5----5----|----------------3-----|
A|-----------------------|-5--------------------|

DROP - Bars 11-12
                                               |--3--|
   E  E  E  E  Q    Q         E (E) E  E  E  E  E E E
G|--------------------------|--------------------------|
D|--------------------------|-------------------5-5-5--|
A|--------------------------|-5-----3--5---------------|
E|-5-----5--4--5----6b6.5r6-|-------------3--3---------|
A|--------------------------|---(5)--------------------|

DROP - Bars 13-14
   E  E  E  E  Q    Q      Q.    E  E  E  Q
G|-----------------------|----------------------|
D|-----------------------|----------------------|
A|-----------------------|-------------3--5-----|
E|-5-----3--5--5----5----|-------3--5-----------|
A|-----------------------|-5--------------------|

DROP - Bars 15-16
   Q    E   E  E  E  Q      E  E  E  E  E  E  E  E
G|------------------------|-------------------------|
D|------------------------|-------------------------|
A|------------------------|----------------5--3-----|
E|-5----4b5r4b=5r=4b=6----|-------------1-------(3)-|
A|------------------------|-5-----3--5--------------|

DROP II - Bars 1-2
            |-3-| |-3-| |-3-|     |-3-|   |-3-| |-3-|     |-3-|
   E  E  E  S S S S S S S S S S S S S S   S S S S S S S S S S S E  S S E  E
D|--------------------------------------|------------------------------------|
G|--------------------------------------|------------------------------------|
A|--------------------------------------|------------------------------------|
E|-5-----0--5-5-5-5-5-5-5-5-5-5---5-5-5-|-5-5-5-5-5-5-5---5-5-5-5---------4--|
A|--------------------------------------|--------------------------5-0-7-----|

~or~
            |-3-| |-3-| |-3-|    |-3-|   |-3-| |-3-|    |-3-|
   E  E  E  S S S S S S S S S E  S S S   S S S S S S E  S S S E  S S E  E
D|-------------------------------------|-----------------------------------|
G|-------------------------------------|-----------------------------------|
A|-------------------------------------|-----------------------------------|
E|-5-----0--5-5-5-5-5-5-5-5-5----5-5-5-|-5-5-5-5-5-5----5-5-5-5---------4--|
A|----------------------------0--------|-------------5-----------5-0-7-----|

DROP II - Bars 3-4
            |-3-| |-3-| |-3-|     |-3-|   |-3-| |-3-|
   E  E  E  S S S S S S S S S S S S S S   S S S S S S S S S S E  Q.
D|--------------------------------------|------------------------------|
G|--------------------------------------|------------------------------|
A|----------7-7-7-7-7-7-7-7-7-7---7-7-7-|-7-7-7-7-7-7-7----------------|
E|-5-----0------------------------------|-----------------3-1-0--------|
A|--------------------------------------|------------------------------|

~or~
            |-3-| |-3-| |-3-|    |-3-|   |-3-| |-3-|
   E  E  E  S S S S S S S S S E  S S S   S S S S S S E  S S E  Q.
D|-------------------------------------|-----------------------------|
G|-------------------------------------|-----------------------------|
A|----------7-7-7-7-7-7-7-7-7----7-7-7-|-7-7-7-7-7-7-----------------|
E|-5-----0--------------------7--------|-------------0--3-1-0--------|
A|-------------------------------------|-----------------------------|

DROP II - Bars 5-6
   Q    Q    E  E  E  E    E  E  E  E  E  S S E  E
G|-----------------------|--------------------------|
D|-----------------------|--------------------------|
A|-----------------------|-5-----5------------------|
E|-5----0----5--0--5--0--|----5-----5------------4--|
A|-----------------------|-------------7----0-7-----|

DROP II - Bars 7-8
           |----tremolo picking----|
   Q    Q    H           (Q.)     S S E  E  Q
G|----------------------|------------------------|
D|-----------3b5rg======|====(3)-----------------|
A|----------------------|--------/7-3-5--3--2----|
E|-5----0---------------|------------------------|
A|----------------------|------------------------|


End:
   Q    H.
G|--------------------------|
D|--------------------------|
A|--------------------------|
E|-5------------------------|
A|--------------------------|



Song structure:

   Intro (without bass)
2x Main riff
   Verse/Build-up
   DROP I bars 1-8
   DROP bars 9-16
   Main riff (without last note)
   Verse/build-up
   DROP II bars 1-8
   DROP bars 9-16 (the same in both drops)
2x Main riff
   End

Please comment and/or rate!

            
            
Suggest correction
Creating personal tab
Creating personal tab
You can edit any tab online and save it as your Personal.

You can edit, replace or remove any tab part or add personal notes – all changes will be seen only by you.

Personal tabs can be accessed anytime from any device, even offline.
Learn more »
Give kudos to tab author, rate the tab!
1 2 3 4 5
comments
print report bad tab
guest
You may want to rate the tab now too:
select rating
Wanna post a correction for this tab? Suggest correction