Oops, an error
Loading. Please wait.

Stephen And The Colberts - Charlene Im Right Behind You tab

2,563 views 1 this week
1 commentread comment
1 2 3 4 5
2 more votes to show rating
add to favorites
×
Save as Personal and add changes to this tab that will be seen only by you. Learn more ›
×
You can save this tab as Personal to edit and correct it or add notes. All changes will be seen only by you. Learn more »
launch autoscroll
font size
0
reset
how to read this tab
guitar tuner
edit
Autoscroll
slow
fast
+/-
esc
set tempo
stop
-------------------------------------------------------------------------------
                             Charlene (I'm Right Behind You - Stephen and The Colberts
-------------------------------------------------------------------------------
Tabbed by: Brendan
Email:

Tuning: Standard

This riff is played during the intro and up until the chorus

e|-----------------------------------------------------------------------------------|
B|-----------------------------------------------------------------------------------|
G|--4-----4------7-----------4------4-------5----------------------------------------|
D|----5-----5----7-------------5------5-----5----------------------------------------|
A|------5-----5--5---------------5------5---3----------------------------------------|
E|-----------------------------------------------------------------------------------|

Chorus:

C                    D
I'm Right behind you now Charlene

Em               C
Waiting Watching oh so close

C                    D
I'm Right behind you now Charlene

Em               C
You'll never be alone again no

Solo:

e|-----------------15-----------------------------15-----------------------------15-------15b--|
B|--------12---15------15---12-----------12---15------15---12-----------12---15------15--------|
G|-----12-----------------------12---12------------------------12---12-------------------------|
D|---------------------------------------------------------------------------------------------|
A|---------------------------------------------------------------------------------------------|
E|---------------------------------------------------------------------------------------------|

Outro:

e|-----------------------------------------------------------------------------------|
B|-----------------------------------------------------------------------------------|
G|--4-----4------7-----------4------4-------5----------------------------------------|
D|----5-----5----7-------------5------5-----5----------------------------------------|
A|------5-----5--5---------------5------5---3----------------------------------------|
E|-----------------------------------------------------------------------------------|

Yep.

            
            
Suggest correction
Creating personal tab
Creating personal tab
You can edit any tab online and save it as your Personal.

You can edit, replace or remove any tab part or add personal notes – all changes will be seen only by you.

Personal tabs can be accessed anytime from any device, even offline.
Learn more »
Give kudos to tab author, rate the tab!
1 2 3 4 5
comments
print report bad tab
1 comment total.
0 reply
thosesixguys 36 Jan 24, 2009 09:49 AM

I'm not going to lie the intro/outro doesn't sound right. What effects are u using for that? Gotta be some pedal or something

guest
You may want to rate the tab now too:
select rating
Wanna post a correction for this tab? Suggest correction