Oops, an error
Loading. Please wait.

Stonefeather - Waves bass

144 views 1 this week
no commentswrite comment
1 2 3 4 5
3 more votes to show rating
add to favorites
×
Save as Personal and add changes to this tab that will be seen only by you. Learn more ›
×
You can save this tab as Personal to edit and correct it or add notes. All changes will be seen only by you. Learn more »
launch autoscroll
font size
0
reset
guitar tuner
edit
Autoscroll
slow
fast
+/-
esc
set tempo
stop
Waves
Stonefeather
The Stonefeather - EP

I am absolutely positive of the 100% accuracy of this tab, just listen to the 
song, and count the beats as it is written.  Have fun!

Verse:
   s   s p s p s   s p s   s p s p
G]-------4---4-------4-------4---4--|
D]----------------------------------| x3
A]-0h2-2---x---0h2-2---0h2-2---x----|
E]----------------------------------|
   1 e & a 2 e & a 3 e & a 4 e & a    

   s   p s   p s   p s   p s   s p     
G]-----7-----9-----7-----9-------7--|
D]----------------------------------|
A]-0h5---0h7---0h5---0h7---0h5-5----|
E]----------------------------------|
   1 e & a 2 e & a 3 e & a 4 e & a   


 
Pre-Chorus:
   sps p s s spspsps s s s p   s
G]--x--9------9-9-x--------11-------|
D]-----------------------11---------|
A]-x-7---7-7-7-x-x-x-9-9-------9\---|
E]----------------------------------|
   1 & 2 & 3 & 4 & 1 & 2 & 3 & 4 &  



Chorus:
   s s p s s p s p s s p s s p s p
G]-----6---------------9-------------|
D]-----------6---7-----------9---11--|
A]-x-4---4---------x-7---7-----------|
E]---------4---5-----------7---9-----|
   1 & 2 & 3 & 4 & 1 & 2 & 3 & 4 & 

Last time of each Chorus:
   s s p s s p s p s s p s s p s p
G]-----6---------------9-------------|
D]-----------6---7-------------------|
A]-x-4---4---------x-7---7-99-9-9\---|
E]---------4---5---------------------|
   1 & 2 & 3 & 4 & 1 & 2 & 3 & 4 & 



Bridge:  (played with bass wah pedal)
   s    s  p  s p s p s p s p s p s p
G]---------12---x---11--10--x---9---x--|
D]-------------------------------------|x3
A]-0h10-10----x---9---x---x---7---x----|
E]-------------------------------------|
   1 e  &  a  2 e & a 3 e & a 4 e & a

   s    s  p  s p s p s p s p s 
G]---------12---x---11--10--x----------|
D]-------------------------------------|
A]-0h10-10----x---9---x---x---7\-------|
E]-------------------------------------|
   1 e  &  a  2 e & a 3 e & a 4 e & a



Last time before jazz breakdown
   s   p s   p s   p s   p  
G]-----7-----9-----7-----9----|
D]----------------------------|
A]-0h5---0h7---0h5---0h7------|
E]----------------------------|
   1 e & a 2 e & a 3 e & a  


Jazz Outro:
G]-------4---2---2---------------4---------------2----|
D]-------------4---4-3-2-1-----------0-2---3-4--------|
A]-2-----------------------2--------------------------|
E]----------------------------------------------------|
   1 & a 2 & a 3 & a 4 & a 1 & a 2 & a 3 & a 4 & a 

G]-3---4-2-----2---------4---------2---2--------------|
D]-----------4---4-3-2-------2-3-4---4---4-3-2-1-2----|
A]----------------------------------------------------|
E]----------------------------------------------------|
   1 & a 2 & a 3 & a 4 & a 1 & a 2 & a 3 & a 4 & a 

G]-------4-----------4-------------2---2--------------|
D]-----------0-2---------0-2-3-4-----4---4-3-2-1-2----|
A]-2--------------------------------------------------|
E]----------------------------------------------------|
   1 & a 2 & a 3 & a 4 & a 1 & a 2 & a 3 & a 4 & a 

G]-------4---------------------------4-7-6-4-6-4------|
D]-----------0-2-----3---4-----------------------6----|
A]-2--------------------------------------------------|
E]----------------------------------------------------|
   1 & a 2 & a 3 & a 4 & a 1 & a 2 & a 3 & a 4 & a 

G]-------------------------------2-----2--------------|
D]-------4---0-2-----3---4-----4-----4---4-3-2-3-4----|
A]-2--------------------------------------------------|
E]----------------------------------------------------|
   1 & a 2 & a 3 & a 4 & a 1 & a 2 & a 3 & a 4 & a 

G]-----------------------------2----------------------|
D]-------4---0-2-----3---4-------4---2-----0-2---4----|
A]-2--------------------------------------------------|
E]----------------------------------------------------|
   1 & a 2 & a 3 & a 4 & a 1 & a 2 & a 3 & a 4 & a 

G]----------------------------------------------------|
D]-------------------------1---2-----------------2----|
A]-0---2-----------------2----------------------------|
E]----------------------------------------------------|
   1 & a 2 & a 3 & a 4 & a 1 & a 2 & a 3 & a 4 & a 

G]-----------------------2-3---4---|
D]-3---4---------------------------|
A]---------------------------------|
E]---------------------------------|
   1 & a 2 & a 3 & a 4 & a 1 & a 2



Intro (no Bass)
Verse x4
Pre-Chorus
Chorus x4
Verse x4
Pre-Chorus
Chorus x4
Bridge
Solo (over Verse) x4
Pre-Chorus
Chorus x8
Verse x2 (with pre-Outro fill)
Jazz Outro

s = slap (with thumb)
p= pop (with pointer/middle finger)
x = muted hit (on slap or pop)
\ = slide down
/ = slide up
h = hammer on
P = pull off

            
            
Suggest correction
Creating personal tab
Creating personal tab
You can edit any tab online and save it as your Personal.

You can edit, replace or remove any tab part or add personal notes – all changes will be seen only by you.

Personal tabs can be accessed anytime from any device, even offline.
Learn more »
Give kudos to tab author, rate the tab!
1 2 3 4 5
comments
print report bad tab
guest
You may want to rate the tab now too:
select rating
Wanna post a correction for this tab? Suggest correction