Oops, an error
Loading. Please wait.

The Ian Carey Project - Get Shaky tab

version 1
version 1

Whole song

6,727 views 3 this week
2 commentsread comments
1 2 3 4 5
x 6
add to favorites
×
Save as Personal and add changes to this tab that will be seen only by you. Learn more ›
×
You can save this tab as Personal to edit and correct it or add notes. All changes will be seen only by you. Learn more »
launch autoscroll
font size
0
reset
how to read this tab
guitar tuner
edit
Autoscroll
slow
fast
+/-
esc
set tempo
stop
get shaky
the ian carey project
tabbed by eldoplaysguitar
play untill singing starts
e----------------------------|
B----------------------------|
G----------------------------|
D-13----13/11---11/9---9/11--|
A-13----13/11---11/9---9/11--|
E-11----11/9----9-/7---7/9---|

verse *pm quick up strokes

e-------------------------------------------------------|
B-------------------------------------------------------|
G-------------------------------------------------------|
D-13---*13-*13---13/11---*11-*11---11/9---*9-*9---9/11--|
A-13---*13-*13---13/11---*11-*11---11/9---*9-*9---9/11--|
E-11---*11-*11---11/9----*9--*9----9-/7---*7-*7---7/9---|
synth part
e--------------------------|
B--------------------------|
G--------------------------|
D--------------------------|
A--------99---------66-6---|
E-6666-6----4444-44--------|
Every second time
e----------------------------|
B----------------------------|
G----------------------------|
D----------------------------|
A--------99---------66-6-44--|
E-6666-6----4444-44----------|

contiune till end

            
            
Suggest correction
Creating personal tab
Creating personal tab
You can edit any tab online and save it as your Personal.

You can edit, replace or remove any tab part or add personal notes – all changes will be seen only by you.

Personal tabs can be accessed anytime from any device, even offline.
Learn more »
comments
print report bad tab
2 comments total.
0 reply
alexhockey 10 Dec 09, 2008 06:35 PM

bit short but good quality

0 reply
Black Rat 1214 40 Aug 05, 2009 05:08 PM

Good tab! Brilliant song to put random solos over!

guest
You may want to rate the tab now too:
select rating
Wanna post a correction for this tab? Suggest correction