Oops, an error
Loading. Please wait.

The Icarus Account - Hold On For Dear Life tab

version 1
version 1

Whole song

2,552 views 1 this week
1 commentread comment
1 2 3 4 5
1 last vote to show rating
add to favorites
×
Save as Personal and add changes to this tab that will be seen only by you. Learn more ›
×
You can save this tab as Personal to edit and correct it or add notes. All changes will be seen only by you. Learn more »
launch autoscroll
font size
0
reset
how to read this tab
guitar tuner
edit
Autoscroll
slow
fast
+/-
esc
set tempo
stop
Author
Difficulty
-----------------------------------------------------------------------
HOLD ON FOR DEAR LIFE – The Icarus Account
-----------------------------------------------------------------------
Tabbed by: Gracen Gonzalez
Email:gracen_g13@hotmail.com

Tuning:Standard

Here’s the basic idea for the song. Ty showed me this one himself. The lessons can be
at http://www.youtube.com/watch?v=EPpleOouJVY and
It’s only guitar one. I’m not sure about some open strings on B for all the chords, but 
you can find it out yourself and find out what sounds better. They use 9ths and it’s in 
Key of D. Any questions
email me. Sorry if I made any mistakes!

INTRO
e|------------------------------------------------------------------|
B|------------------------------------------------------------------|
G|---7-----7----4------7----7----4----------------------------------|
D|--0-0---0-0---0-----0-0--0-0---0----------------------------------|X2
A|--------------x----------------x----------------------------------|
E|-7-----0------3----7----0------3----------------------------------|

Verse
e|------------------------------------------------------------------|
B|------------------------------------------------------------------|
G|---7-----7-----4-----6--------------------------------------------|
D|--0-0---0-0---0-0---0-0-------------------------------------------|X3
A|------------------------------------------------------------------|
E|-7-----0-----3-----5----------------------------------------------|

e|------------------------------------------------------------------|
B|------------------------------------------------------------------|
G|---7-----7----4---6-----------------------------------------------|
D|--0-0---0-0---0---0-----------------------------------------------|X1
A|--------------x---x-----------------------------------------------|
E|-7-----0------3---5-----------------------------------------------|

e|------------------------------------------------------------------|
B|------------------------------------------------------------------|
G|-7--4--11--9------------------------------------------------------|
D|-0--0--0---0------------------------------------------------------|X1
A|-x--x--x---x------------------------------------------------------|
E|-7--3--10--9------------------------------------------------------|

e|------------------------------------------------------------------|
B|------------------------------------------------------------------|
G|-7--4--6--2-------------------------------------------------------|
D|-0--0--0--0-------------------------------------------------------|X2
A|-x--x--x--x-------------------------------------------------------|
E|-7--3--5--2-------------------------------------------------------|

e|------------------------------------------------------------------|
B|------------------------------------------------------------------|
G|-7--4--6----------------------------------------------------------|
D|-0--0--0----------------------------------------------------------|X1
A|-x--x--x----------------------------------------------------------|
E|-7--3--5----------------------------------------------------------|


e|------------------------------------------------------------------|
B|------------------------------------------------------------------|
G|-7--4--6--2-------------------------------------------------------|
D|-0--0--0--0-------------------------------------------------------|X1
A|-x--x--x--x-------------------------------------------------------|
E|-7--3--5--2-------------------------------------------------------|

e|------------------------------------------------------------------|
B|------------------------------------------------------------------|
G|-7--4--6----------------------------------------------------------|
D|-0--0--0----------------------------------------------------------|X1
A|-x--x--x----------------------------------------------------------|
E|-7--3--5----------------------------------------------------------|

Chorus
e|------------------------------------------------------------------|
B|------------------------------------------------------------------|
G|-7--4--11--9------------------------------------------------------|
D|-0--0--0---0------------------------------------------------------|X1
A|-x--x--x---x------------------------------------------------------|
E|-7--3--10--9------------------------------------------------------|

e|------------------------------------------------------------------|
B|------------------------------------------------------------------|
G|-7--4--6----------------------------------------------------------|
D|-0--0--0----------------------------------------------------------|X1
A|-x--x--x----------------------------------------------------------|
E|-7--3--5----------------------------------------------------------|

e|------------------------------------------------------------------|
B|------------------------------------------------------------------|
G|-7--11-4--6-------------------------------------------------------|
D|-0--0--0--0-------------------------------------------------------|X6
A|-x--x--x--x-------------------------------------------------------|
E|-7--10-3--5-------------------------------------------------------|

e|------------------------------------------------------------------|
B|------------------------------------------------------------------|
G|-7--4--6--2-------------------------------------------------------|
D|-0--0--0--0-------------------------------------------------------|X2
A|-x--x--x--x-------------------------------------------------------|
E|-7--3--5--2-------------------------------------------------------|

e|------------------------------------------------------------------|
B|------------------------------------------------------------------|
G|-7--4--6----------------------------------------------------------|
D|-0--0--0----------------------------------------------------------|X4
A|-x--x--x----------------------------------------------------------|
E|-7--3--5----------------------------------------------------------|


e|------------------------------------------------------------------|
B|------------------------------------------------------------------|
G|-7--4--6--2-------------------------------------------------------|
D|-0--0--0--0-------------------------------------------------------|x2
A|-x--x--x--x-------------------------------------------------------|
E|-7--3--5--2-------------------------------------------------------|

e|------------------------------------------------------------------|
B|------------------------------------------------------------------|
G|-7--11-4--6-------------------------------------------------------|
D|-0--0--0--0-------------------------------------------------------|X4
A|-x--x--x--x-------------------------------------------------------|
E|-7--10-3--5-------------------------------------------------------|

Bridge
e|------------------------------------------------------------------|
B|------------------------------------------------------------------|
G|-4---6------------------------------------------------------------|
D|-0---0------------------------------------------------------------|X4
A|-x---x------------------------------------------------------------|
E|-3---5------------------------------------------------------------|

e|------------------------------------------------------------------|
B|------------------------------------------------------------------|
G|-7--4--6--2-------------------------------------------------------|
D|-0--0--0--0-------------------------------------------------------|X1
A|-x--x--x--x-------------------------------------------------------|
E|-7--3--5--2-------------------------------------------------------|

e|------------------------------------------------------------------|
B|------------------------------------------------------------------|
G|-7--4--6----------------------------------------------------------|
D|-0--0--0----------------------------------------------------------|X1
A|-x--x--x----------------------------------------------------------|
E|-7--3--5----------------------------------------------------------|

e|------------------------------------------------------------------|
B|------------------------------------------------------------------|
G|-7--4--6--2-------------------------------------------------------|
D|-0--0--0--0-------------------------------------------------------|X4
A|-x--x--x--x-------------------------------------------------------|
E|-7--3--5--2-------------------------------------------------------|

e|------------------------------------------------------------------|
B|------------------------------------------------------------------|
G|-4--6--11---------------------------------------------------------|
D|-0--0--0----------------------------------------------------------|X1
A|-x--x--x----------------------------------------------------------|
E|-3--5--10---------------------------------------------------------|

Here's a fill used in some places...
e|------------------------------------------------------------------|
B|------------------------------------------------------------------|
G|------------------------------------------------------------------|
D|------------------------------------------------------------------|X1
A|------------------------------------------------------------------|
E|---0h5h7--2-------------------------------------------------------|


You caught my eye
Just like a color that I
Have never seen before
Something Oh so beautiful
How can I stand still
And let you walk right by
Wonder when you'll pass me by
And will my life ever change

Please stay Don't go
I want the world to know
I want Your heart
And nothing less than that tonight
Even if I have to shout your name
I know now that we can never be the same
So let's hold on for dear life

I can't believe this is happening
It's so much more than I thought it would be
I can't pretend it's a mystery
When you've got all of me

You're the only one I know
Who leaves me no control
You're the only one I need
So here's my everything
You're the only one I see
Girl it's just you and me
So let's try to make this scene
Played out on the movie screen
We never believed this was possible
Til now

I can't believe this is happening
It's so much more than I thought it would be
I can't pretend it's a mystery
When you've got all of me When you've got all of me
When you've got all of me...
Please stay Don't go
I want the world to know
I want Your heart
And nothing less than that tonight...

            
            
Suggest correction
Creating personal tab
Creating personal tab
You can edit any tab online and save it as your Personal.

You can edit, replace or remove any tab part or add personal notes – all changes will be seen only by you.

Personal tabs can be accessed anytime from any device, even offline.
Learn more »
Give kudos to tab author, rate the tab!
1 2 3 4 5
comments
print report bad tab
1 comment total.
0 reply
kloeXplaysXbass 52 May 08, 2008 03:38 PM

Sounds really good good tab! 5 stars!
And btw the little thing in the intro, the part you don't have, it's:
first time:
e-2-2-3-2----------
B-3-3-3-3-3--------
G------------------
D------------------
A------------------
E------------------

and the 2nd time:
e--2-2-3-5-------
B--3-3-3-3-------
G----------------
D----------------
A----------------
E----------------

Just to let you know =)

guest
You may want to rate the tab now too:
select rating
Wanna post a correction for this tab? Suggest correction