Oops, an error
Loading. Please wait.

The Main Drag - A Jagged Gorgeous Winter tab

version 2
version 2

Whole song

10,545 views 6 this week
1 commentread comment
1 2 3 4 5
x 5
add to favorites
×
Save as Personal and add changes to this tab that will be seen only by you. Learn more ›
×
You can save this tab as Personal to edit and correct it or add notes. All changes will be seen only by you. Learn more »
launch autoscroll
font size
0
reset
how to read this tab
guitar tuner
edit
Autoscroll
slow
fast
+/-
esc
set tempo
stop
Author
-------------------------------------------------------------------------------
                     A Jagged Gorgeous Winter - The Main Drag
-------------------------------------------------------------------------------
Tabbed by: Ahrum
Email: TheMoogleDance@hotmail.com

Tuning: Standard

Feel free to e-mail me w/ comments, as this is my first tab.

e|------------------------------------------|
B|----------7------7--------------7---------|
G|-----8-9----8-9------------8-9-----9-8----|
D|-------------------9-11-9--------------9--|  x4
A|------------------------------------------|
E|------------------------------------------|

e|--------|
B|--------|
G|--------|
D|---13~--|
A|---18~--|
E|--------|

e|---------------------------|
B|---------------------------|
G|-----------------------20--|
D|----------------16--18-----|  x4
A|-------------18------------|
E|---(12)-(14)---------------|

I put notes in parenthesis because I feel as though it's the bass guitar playing, but 
put them in if you feel like it.

(3/23, UPDATE, switched strings)

e|--------------------------------------|
B|--------------------------------------|
G|-----16--16--18-----------------------|
D|-----------------16-16--18b--18-18-16-|   x2
A|--------------------------------------|
E|--------------------------------------|

e|----------------------------|
B|----------------------------|
G|----------------------20----|
D|----------------18-16-------|  x8
A|---------18-14--------------|
E|-(12)-----------------------|

Same parenthesis note as before

This next part is constant strumming, how fast is not shown.

e|-----------------------------------------|
B|-----------------------------------------|
G|-----------------------------------------|
D|-----------------------------------------|
A|-----------------------------------------|
E|-----7--9--11--7--9--11--12--11--9--12---|

e|-----------------------------------------|
B|-----------------------------------------|
G|-----------------------------------------|
D|-----------------------------------------|
A|-------------14--16--18--14--16--18--19--|
E|-----14--16------------------------------|

e|----------------------------------------------|
B|----------------------------------------------|
G|---------------------13--16--15--11--13/------|
D|-----------------16---------------------------|
A|-----18--16--19-------------------------------|
E|----------------------------------------------|

TY for reading.

| /  slide up
| \  slide down
| h  hammer-on
| p  pull-off
| ~  vibrato
| +  harmonic
| x  Mute note

            
            
Suggest correction
Creating personal tab
Creating personal tab
You can edit any tab online and save it as your Personal.

You can edit, replace or remove any tab part or add personal notes – all changes will be seen only by you.

Personal tabs can be accessed anytime from any device, even offline.
Learn more »
comments
print report bad tab
1 comment total.
0 reply
guitarlegend94 10 Jul 16, 2010 01:26 PM

This is a great tab. Thanks

guest
You may want to rate the tab now too:
select rating
Wanna post a correction for this tab? Suggest correction