Oops, an error
Loading. Please wait.

The Mimes - Tarantula bass

120 views 1 this week
1 commentread comment
1 2 3 4 5
2 more votes to show rating
add to favorites
×
Save as Personal and add changes to this tab that will be seen only by you. Learn more ›
×
You can save this tab as Personal to edit and correct it or add notes. All changes will be seen only by you. Learn more »
launch autoscroll
font size
0
reset
guitar tuner
edit
Autoscroll
slow
fast
+/-
esc
set tempo
stop
Author
Difficulty
Here is a song that is little known to many people. It is from The Mimes first CD, 
out of the Basement." Check out there band website at 
This song's tuning is Standard.

G|-------------------------------------------------|
D|-------------------------------------------------|  x4
A|-------------------------------------------------|
E|-12/0--00000001--00000003--00000001--0000000321--|

This next part during guitar solo

G|-------------------|
D|-------------------| x2
A|-------------------|
E|-0----1----3----1--|

Drum Re-enter

G|----------------------------------|
D|----------------------------------| x5
A|----------------------------------|
E|-0-0-0-0-1-1-1-1-3-3-3-3-1-1-1-1--|

Play this part during Guitar Solo 2

G|-------------------|
D|-------------------| x2
A|-------------------|
E|-0----1----3----1--|

Drums Re-enter

G|-------------------------------------------|
D|-------------------------------------------|  x2
A|-------------------------------------------|
E|-00000001--00000003--00000001--0000000321--|

This next part is for the outro*

G|--0---0---0--|
D|--0---0---0--|
A|--0---0---0--|
E|--0---0---0--|

*Let the last notes "fade out"

            
            
Suggest correction
Creating personal tab
Creating personal tab
You can edit any tab online and save it as your Personal.

You can edit, replace or remove any tab part or add personal notes – all changes will be seen only by you.

Personal tabs can be accessed anytime from any device, even offline.
Learn more »
Give kudos to tab author, rate the tab!
1 2 3 4 5
comments
print report bad tab
1 comment total.
+1 reply
arm the masses 52 Mar 12, 2008 05:27 AM

pretty cool. you should check out this tab called big bro. Metallica. it's pretty fun. i wrote it.

guest
You may want to rate the tab now too:
select rating
Wanna post a correction for this tab? Suggest correction