Oops, an error
Loading. Please wait.

The New Kick - Home bass

22 views 1 this week
no commentswrite comment
1 2 3 4 5
3 more votes to show rating
add to favorites
×
Save as Personal and add changes to this tab that will be seen only by you. Learn more ›
×
You can save this tab as Personal to edit and correct it or add notes. All changes will be seen only by you. Learn more »
launch autoscroll
font size
0
reset
guitar tuner
edit
Autoscroll
slow
fast
+/-
esc
set tempo
stop
Author
Difficulty
Tabbed by: 6METAL6BASSIST6
E-mail: petergriffinav@gmail.com

Tuning: EADG

0:05

G|------------9-----------7---7-------7-----7-/---|
D|7---7-----------0-------------------------------|
A|------------------------------------------------|
E|------------------------------------------------|

G|12----12-------11-----\-9---------------9-9-----------------------------12--11----9-----7-------|
D|------------------------------------------------7-----7-----7-----7-----------------------------|
A|----------------------------------------------------------------------------------------------5-|
E|------------------------------------------------------------------------------------------------|

0:15

G|------------------------------------------------------------------------------------------------|
D|5-----5-----5-----5-----3-----3-----3-----3-----------------------------------------------------|
A|----------------------5-----------------------5-3-----3-----3-----3-----0-----0-----5-----5-----|
E|------------------------------------------------------------------------------------------------|

G|------------------------------------------------------------------------------------------------|
D|5-----5-----5-----5-----3-----3-----3-----3---------------------------------------------------0/|
A|------------------------------------------------3-----3-----3-----3-----0-----------------------|
E|------------------------------------------------------------------------------------------------|

G|------------------------------------------------5-----5-----5-----5-----------------------------|
D|5-----5-----5-----5-----------------------------------------------------7-----7-----------------|
A|------------------------7-----7-----7-----7-----------------------------------------5-----5-----|
E|------------------------------------------------------------------------------------------------|

G|------------------------------------------------5-----5-----5-----5-----------------------------|
D|5-----5-----5-----5-----------------------------------------------------7-----------------------|
A|------------------------7-----7-----7-----7-----------------------------------------------------|
E|------------------------------------------------------------------------------------------------|

G|------------------------------------------------|
D|3---3---3---------------------------------------|
A|------------3---3---3---5---5-------0---5-------|
E|------------------------------------------------|

0:44

G|------------------11----9---11------------------------------------9-----7---9-------------------|
D|9-----9-----9---------------------9-------9-\---7-----7-----7---------------------7-------7-----|
A|------------------------------------------------------------------------------------------------|
E|------------------------------------------------------------------------------------------------|

G|------------------------------------------------------------------------|
D|3-----3-----3-----3-----------------------------------------------------|
A|------------------------5---5---5---0---0---0---5---5---5---0---5-------|
E|------------------------------------------------------------------------|

G|----------------------------2-----3-----4-5---------------------------------2-----3-----4-5-----|
D|5-----5-----5-----5-----3-----------------------5-----5-----5-----5-----3-----------------------|
A|------------------------------------------------------------------------------------------------|
E|------------------------------------------------------------------------------------------------|

1:01

G|------------------------------------------------------------------------------------------------|
D|5-----5-----5-----5-----3-----3-----3-----3-----------------------------------------------------|
A|------------------------------------------------3-----3-----3-----3-----0-----0-----5-----5-----|
E|------------------------------------------------------------------------------------------------|

G|------------------------------------------------------------------------------------------------|
D|5-----5-----5-----5-----3-----3-----3-----3---------------------------------------------------0/|
A|------------------------------------------------3-----3-----3-----3-----0-----------------------|
E|------------------------------------------------------------------------------------------------|

G|------------------------------------------------5-----5-----5-----5-----------------------------|
D|5-----5-----5-----5-----------------------------------------------------7-----7-----------------|
A|------------------------7-----7-----7-----7-----------------------------------------5-----5-----|
E|------------------------------------------------------------------------------------------------|

G|------------------------------------------------5-----5-----5-----5-----------------------------|
D|5-----5-----5-----5-----------------------------------------------------7-----------------------|
A|------------------------7-----7-----7-----7-----------------------------------------------------|
E|------------------------------------------------------------------------------------------------|

G|------------------------------------------------|
D|3---3---3-------------------------------------/-|
A|------------3---3---3---5---5---5---0---5-------|
E|------------------------------------------------|

1:30

G|------------------11----9---11------------------------------------9-----7---9-------------------|
D|9-----9-----9---------------------9-------9-\---7-----7-----7---------------------7-------7-----|
A|------------------------------------------------------------------------------------------------|
E|------------------------------------------------------------------------------------------------|

G|------------------------------------------------------------------------|
D|3-----3-----3-----3-----------------------------------------------------|
A|------------------------5---5---5---0---0---0---5---5---5---0---5-------|
E|------------------------------------------------------------------------|

G|----------------------------2-----3-----4-5---------------------------------2-----3-----4-5-----|
D|5-----5-----5-----5-----3-----------------------5-----5-----5-----5-----3-----------------------|
A|------------------------------------------------------------------------------------------------|
E|------------------------------------------------------------------------------------------------|

1:48

G|------------------------------------------------------------------------------------------------|
D|5-----5-----5-----5-----3-----3-----3-----3-----------------------------------------------------|
A|------------------------------------------------3-----3-----3-----3-----0-----0-----5-----5-----|
E|------------------------------------------------------------------------------------------------|

G|------------------------------------------------------------------------------------------------|
D|5-----5-----5-----5-----3-----3-----3-----3---------------------------------------------------0/|
A|------------------------------------------------3-----3-----3-----3-----0-----------------------|
E|------------------------------------------------------------------------------------------------|

G|------------------------------------------------5-----5-----5-----5-----------------------------|
D|5-----5-----5-----5-----------------------------------------------------7-----7-----------------|
A|------------------------7-----7-----7-----7-----------------------------------------5-----5-----|
E|------------------------------------------------------------------------------------------------|

G|------------------------------------------------5-----5-----5-----5-----------------------------|
D|5-----5-----5-----5-----------------------------------------------------7-----------------------|
A|------------------------7-----7-----7-----7-----------------------------------------------------|
E|------------------------------------------------------------------------------------------------|

G|------------------------------------------------|
D|3---3---3---------------------------------------|
A|------------3---3---3---5---5---5---0---5-------|
E|------------------------------------------------|

2:17

G|----------------------------2-----3-----4-5---------------------------------2-----3-----4-5-----|
D|5-----5-----5-----5-----3-----------------------5-----5-----5-----5-----3-----------------------|
A|------------------------------------------------------------------------------------------------|
E|------------------------------------------------------------------------------------------------|

G|----------------------------2-----3-----4-5-----12--11----9-------------------------------------|
D|5-----5-----5-----5-----3---------------------------------------12----10----12------------------|
A|----------------------------------------------------------------------------------10------------|
E|------------------------------------------------------------------------------------------------|

G|12--11----9-------------------------------------------------------------------------------------|
D|----------------12------------------------------------------------------------------------------|
A|------------------------------9-----10----------------------------9-----10----------------------|
E|----------------------------------------------------------------10------------------------------|

            
            
Suggest correction
Creating personal tab
Creating personal tab
You can edit any tab online and save it as your Personal.

You can edit, replace or remove any tab part or add personal notes – all changes will be seen only by you.

Personal tabs can be accessed anytime from any device, even offline.
Learn more »
Give kudos to tab author, rate the tab!
1 2 3 4 5
comments
print report bad tab
guest
You may want to rate the tab now too:
select rating
Wanna post a correction for this tab? Suggest correction