Oops, an error
Loading. Please wait.

The Northern Hues - Shine tab

253 views 6 this week
1 commentread comment
1 2 3 4 5
1 last vote to show rating
add to favorites
×
Save as Personal and add changes to this tab that will be seen only by you. Learn more ›
×
You can save this tab as Personal to edit and correct it or add notes. All changes will be seen only by you. Learn more »
launch autoscroll
font size
0
reset
how to read this tab
guitar tuner
edit
Autoscroll
slow
fast
+/-
esc
set tempo
stop
Author
                                           The Northern Hues
                                                Shine
                                           Rhythm Guitar Tab
 Tabbed by: Ethan Bland
 Tuning: E Standard
 E-mail: ethanmbland@gmail.com

                "Intro"
e|------------------------------------------------------------4----------------------0--------1------0------|
A|-------------------------4--------------------------------4--4-----------4-------0---0----0--0---0---0----|
D|--------4------4-------4--4-----------4--------4--------4------4-------4---4---3--------3------3----------|
G|----2------2--------4-------4----2--------2----------4---------------6------------------------------------|
B|------0------0---------------------0---------0------------------------------------------------------------|
E|----------------------------------------------------------------------------------------------------------|
                                              
e|-----------------0--------1--------0----------4---------0------1-------0-------------------0---------1----|
A|------4--------0---0----0---0----0---0------4---4-----0--0---0---0---0---0-------4-------0----0----0---0--|
D|----4---4----3--------3--------3----------6---------3------3-------3-----------4---4---3---------3--------|
G|--6--------------------------------------------------------------------------6----------------------------|
B|----------------------------------------------------------------------------------------------------------|
E|----------------------------------------------------------------------------------------------------------|
                                                     
e|---4-4-4-4-4-4--4-4-4-4--4-4-4-4--7-7-7-7--4-4-4-4--4-4-4-4--4-4-4-4--7-7-7-7--4-4-4-4--------------------|
A|---5-5-5-5-5-5--4-4-4-4--5-5-5-5--7-7-7-7--5-5-5-5--4-4-4-4--5-5-5-5--7-7-7-7--5-5-5-5--------------------|
D|---4-4-4-4-4-4--1-1-1-1--4-4-4-4--4-4-4-4--4-4-4-4--1-1-1-1--4-4-4-4--4-4-4-4--4-4-4-4--------------------|
G|----------------------------------------------------------------------------------------------------------|
B|----------------------------------------------------------------------------------------------------------|
E|----------------------------------------------------------------------------------------------------------|
              "When your path has been broken"
e|--4-4-4-4--4-4-4-4--7-7-7-7--4-4-4-4--4-4-4-4--4-4-4-4--7-7-7-7--4-4-4-4----------------------------------|
A|--4-4-4-4--5-5-5-5--7-7-7-7--5-5-5-5--4-4-4-4--5-5-5-5--7-7-7-7--5-5-5-5----------------------------------|
D|--1-1-1-1--4-4-4-4--4-4-4-4--4-4-4-4--1-1-1-1--4-4-4-4--1-1-1-1--4-4-4-4----------------------------------|
G|----------------------------------------------------------------------------------------------------------|
B|----------------------------------------------------------------------------------------------------------|
E|----------------------------------------------------------------------------------------------------------|
              "Children, your still yourselves I said"
e|--5----4----2-----4----5----4----2-2-2-2--4-4-4-4----5----4----2----4----5----4----2--2-2-2--4--4-4-4-----|
A|--5----5----2-----2----5----5----2-2-2-2--2-2-2-2----5----5----2----2----5----5----2--2-2-2--2--2-2-2-----|
D|--4----4----1-----1----4----4----1-1-1-1--1-1-1-1----4----4----1----1----4----4----1--1-1-1--1--1-1-1-----|
G|----------------------------------------------------------------------------------------------------------|
B|----------------------------------------------------------------------------------------------------------|
E|----------------------------------------------------------------------------------------------------------|
              "My Friends"                                                
e|---4-4-4-4--4-4-4-4--7-7-7-7--4-4-4-4--4-4-4-4--4-4-4-4--7-7-7-7--4-4-4-4--4-4-4-4--4-4-4-4--7-7-7-7------|
A|---4-4-4-4--5-5-5-5--7-7-7-7--5-5-5-5--4-4-4-4--5-5-5-5--7-7-7-7--5-5-5-5--4-4-4-4--5-5-5-5--7-7-7-7------|
D|---1-1-1-1--4-4-4-4--1-1-1-1--4-4-4-4--1-1-1-1--4-4-4-4--4-4-4-4--4-4-4-4--1-1-1-1--4-4-4-4--4-4-4-4------|
G|----------------------------------------------------------------------------------------------------------|
B|----------------------------------------------------------------------------------------------------------|
E|----------------------------------------------------------------------------------------------------------|

e|--4-4-4-4--4-4-4-4--4-4-4-4--7-7-7-7--4-4-4-4---5----4----2----4----5----4----2-2-2-2--4-4-4-4--5----4----|
A|--5-5-5-5--4-4-4-4--5-5-5-5--7-7-7-7--5-5-5-5---5----5----2----2----5----5----2-2-2-2--2-2-2-2--5----5----|
D|--4-4-4-4--1-1-1-1--4-4-4-4--4-4-4-4--4-4-4-4---4----4----1----1----4----4----1-1-1-1--1-2-1-1--4----4----|
G|----------------------------------------------------------------------------------------------------------|
B|----------------------------------------------------------------------------------------------------------|
E|----------------------------------------------------------------------------------------------------------|

e|--2----4----5----4----2-2-2-2--4-4-4-4---4-4-4-4-4-4-4-4--7-7-7-7--5-5-5-5--4-4-4-4-4-4-4-4--7-7-7-7------|
A|--2----2----5----5----2-2-2-2--2-2-2-2---5-5-5-5-5-5-5-5--5-5-5-5--5-5-5-5--5-5-5-5-5-5-5-5--5-5-5-5------|
D|--1----1----4----4----1-1-1-1--1-1-1-1---4-4-4-4-4-4-4-4--4-4-4-4--4-4-4-4--4-4-4-4-4-4-4-4--4-4-4-4------|
G|----------------------------------------------------------------------------------------------------------|
B|----------------------------------------------------------------------------------------------------------|
E|----------------------------------------------------------------------------------------------------------|
            "One day light starts to shine"                                     
e|--5-5-5-5--4-4-4-4-4-4-4-4--7-7-7-7--5-5-5-5--4-4-4-4-4-4-4-4--7-7-7-7--5-5-5-5--4--4--4--4--7-7-7-7----|
B|--5-5-5-5--5-5-5-5-5-5-5-5--5-5-5-5--5-5-5-5--5-5-5-5-5-5-5-5--5-5-5-5--5-5-5-5--5--5--5--5--5-5-5-5----|
G|--4-4-4-4--4-4-4-4-4-4-4-4--4-4-4-4--4-4-4-4--4-4-4-4-4-4-4-4--4-4-4-4--4-4-4-4--4--4--4--4--4-4-4-4----|
D|----------------------------------------------------------------------------------------------------------|
A|----------------------------------------------------------------------------------------------------------|
E|----------------------------------------------------------------------------------------------------------|

e|--5-5-5-5--4--4--4--4--7-7-7-7--5-5-5-5--4-4-4-4-4-4-4-4--7-7-7-7--5-5-5-5--4-4-4-4-4-4-4-4--7-7-7-7------|
B|--5-5-5-5--5--5--5--5--5-5-5-5--5-5-5-5--5-5-5-5-5-5-5-5--5-5-5-5--5-5-5-5--5-5-5-5-5-5-5-5--5-5-5-5------|
G|--4-4-4-4--4--4--4--4--4-4-4-4--4-4-4-4--4-4-4-4-4-4-4-4--4-4-4-4--4-4-4-4--4-4-4-4-4-4-4-4--4-4-4-4------|
D|----------------------------------------------------------------------------------------------------------|
A|----------------------------------------------------------------------------------------------------------|
E|----------------------------------------------------------------------------------------------------------|

e|--5-5-5-5--4-4-4-4-4-4-4-4--7-7-7-7--5-5-5-5-x------------------------------------------------------------|
B|--5-5-5-5--5-5-5-5-5-5-5-5--5-5-5-5--5-5-5-5-x------------------------------------------------------------|
G|--4-4-4-4--4-4-4-4-4-4-4-4--4-4-4-4--4-4-4-4-x------------------------------------------------------------|
D|----------------------------------------------------------------------------------------------------------|
A|----------------------------------------------------------------------------------------------------------|
E|----------------------------------------------------------------------------------------------------------|

e|------------------------------------------------4--------4-4-4-4--4-4-4-4--7-7-7-7--4-4-4-4--4-4-4-4------|
B|---------------------4------------------------4---4------4-4-4-4--5-5-5-5--7-7-7-7--5-5-5-5--4-4-4-4------|
G|------4------4-----4---4-------4------4-----4-------4----1-1-1-1--4-4-4-4--4-4-4-4--4-4-4-4--1-1-1-1------|
D|--2------2------4--------4--2------2------4---------------------------------------------------------------|
A|----0------0------------------0-------0-------------------------------------------------------------------|
E|----------------------------------------------------------------------------------------------------------|

e|--4-4-4-4--7-7-7-7--4-4-4-4--4-4-4-4--4-4-4-4--7-7-7-7---4------------------------------------------------|
B|--5-5-5-5--7-7-7-7--5-5-5-5--4-4-4-4--5-5-5-5--7-7-7-7---5------------------------------------------------|
G|--4-4-4-4--4-4-4-4--4-4-4-4--1-1-1-1--4-4-4-4--4-4-4-4---4------------------------------------------------|
D|---------------------------------------------------------6------------------------------------------------|
A|----------------------------------------------------------------------------------------------------------|
E|----------------------------------------------------------------------------------------------------------|

************************************

| /   slide up
| \   slide down
| h   hammer-on
| p   pull-off
| ~   vibrato
| +   harmonic
| x   Mute note
| b   Bend
| pb  Pre-bend
| br  Bend release
| pbr Pre-bend release
| brb Bend release bend

************************************

            
            
Suggest correction
Creating personal tab
Creating personal tab
You can edit any tab online and save it as your Personal.

You can edit, replace or remove any tab part or add personal notes – all changes will be seen only by you.

Personal tabs can be accessed anytime from any device, even offline.
Learn more »
Give kudos to tab author, rate the tab!
1 2 3 4 5
comments
print report bad tab
1 comment total.
0 reply
Fri3ndly_Fish 10 Aug 27, 2017 02:21 PM

HELL YES BRAVO

guest
You may want to rate the tab now too:
select rating
Wanna post a correction for this tab? Suggest correction