Oops, an error
Loading. Please wait.

The Third Temple - Warpath bass

131 views 1 this week
no commentswrite comment
1 2 3 4 5
3 more votes to show rating
add to favorites
×
Save as Personal and add changes to this tab that will be seen only by you. Learn more ›
×
You can save this tab as Personal to edit and correct it or add notes. All changes will be seen only by you. Learn more »
launch autoscroll
font size
0
reset
guitar tuner
edit
Autoscroll
slow
fast
+/-
esc
set tempo
stop
Artist - The Third Temple
Song - Warpath
Album - Somber Endings & New Beginnings
Bassist - Gamaliel Colon
Tuning - 5 string, Drop Bb (Bb. F, Bb, Eb, Ab)
Tabbed by - Gamaliel Colon (thegreatgambeeno@yahoo.com)


  These are the main ideas behind the parts. There are variations throughout at
times, nothing you can't just improvise or figure out on your own. I'd rather you 
do your own thing and kinda wing it anyways ;) Happy bassin to ya    


    intro riff
Ab|----------------------------------------------------|
Eb|----------------------------------------------------|
Bb|------------------7p0h7-10-8-7-5h7p5----------------|
F |-------7h8---------------------------4--5--7--------|
Bb|-0-0-0------0-0-0-----------------------------------|

    bridge 1 (10's 11'3 and 13's are double digits)
Ab|-------------------------------------------------------------------------------------|
Eb|-------------------------------------------------------------------------------------|
Bb|-------------------------------------------------------------------------------------|
F |-88888877777788888877777710101010101099999911111111111110101010101013-----(13)\------|
Bb|-------------------------------------------------------------------------------------|

    verse riff 1
Ab|--------------------------------------------------------|
Eb|--------------------------------------------------------|
Bb|--------------------------------------------------------|
F |---7h8---7h8-------10p8p7---5h7---5p0---4--5--7---------|
Bb|-0-----0-----0-0-0--------0-----0-----0-----------------|

    bridge 2
Ab|------------------------------------------------------------------------------------|
Eb|------------------------------------------------------------------------------------|
Bb|------------------------------------------------------------------------------------|
F |-------------------------555555777777-------------------------777777101010101010----|
Bb|-0---0---0-0-0---0---0-0--------------0---0---0-0-0---0---0-0-----------------------|

    prechorus
Ab|-----------------------------------------------------------------------|
Eb|-----------------------------------------------------------------------|
Bb|-------------------------7---------------------------2-------2---------|
F |-----------------5-6-8-5---5-8-5-----------------1-1---1-3-3---3-------|
Bb|-0-0-0-0-0-0-0-0-----------------0-0-0-0-0-0-0-0-----------------------|

    chorus riff 1
Ab|----------------------------------------------------------------|
Eb|----------------------------------------------------------------|
Bb|---------------------------------------------7p0h7-10-8-7-5-----|
F |---------------------------------8---7h8------------------------|
Bb|-8---8-8-8-8-8-5---5-5-5-5-5-0-0---0-----0-0--------------------|

    chorus riff 2
Ab|---------------------------------|
Eb|---------------------------------|
Bb|---------------------------------|
F |---------------------------------|
Bb|-8---8-8-8-8-8-5---5-5-5-5-5-----|

    bridge 3
Ab|-------------------------------------------------------------------|
Eb|-------------------------------------------------------------------|
Bb|-------------------------------------------------------------------|
F |-------------------------------------------------------------------|
Bb|-000-000-000-000-000-000-000-000-000-000-000-000-000-000-000-3~----|

    breakdown
Ab|-------------------------------------------------------------|
Eb|----------------------------------------------------8--8-----|
Bb|----------------------------------------------------9--9-----|
F |-------------------------------------------------------------|
Bb|-000-000-0--000-000-8--0-5--000-000-3--000-000-7--0----------|

    verse riff 2
Ab|---------------------------------------------------------------------------------------------|
Eb|---------------------------------------------------------------------------------------------|
Bb|-----------------------------------10-8-7-5h7p5----------------------------------------------|
F |-------7h8-------------------7h8----------------------7h8-------------------7h8---4--5--7----|
Bb|-0-0-0-----0-0-0-0-0-0-0-0-0-----0--------------0-0-0-----0-0-0-0-0-0-0-0-0-----0------------|
 
    bridge 4
Ab|--------------------------------------------------------------------------------|
Eb|--------------------------------------------------------------------------------|
Bb|--------------------------------------------------------------------------------|
F |-----------------------------------------------------------------4--5--7--------|
Bb|-0-0-0-0----0-0-0-0-0-0-0-0-0-0--0--0-0-0-0----0-0-0-0-0-0-0-0-0----------------|

Ab|-------------------------------------------------------------------------------------|
Eb|-------------------------------------------------------------------------------------|
Bb|------------------------------10-8-7-5h7p5-------------------------------------------|
F |------------------------------------------------------------------------4--5--7------|
Bb|-0-0-0-0----0-0-0-0-0-0-0-0-0--------------0-0-0-0----0-0-0-0-0-0-0-0-0--------------|

    bass solo (distortion)
Ab|--------------------------------------------------------------------------------------|
Eb|--------------------------------------------------------------------------------------|
Bb|-----------------7/12\7-------------8p7p5-8p7p5-10p8p7-10p8p7-12p10p8-12p10p8/12~-----|
F |-8p7p5-8p7p5-7p5p0------7p5p4h5~------------------------------------------------------|
Bb|--------------------------------------------------------------------------------------|

Ab|---------------------------------------------------------19----22p21p19-24p21-24b26~------|
Eb|-17b19r17b19r17b19r17b19--17h19p17--------------19h21h22----22----------------------------|
Bb|-----------------------------------20-17-19~----------------------------------------------|
F |------------------------------------------------------------------------------------------|
Bb|------------------------------------------------------------------------------------------|

    solo riff 1
Ab|------------------------------------------------------------|
Eb|------------------------------------------------------------|
Bb|------------------------------------------------------------|
F |----------------------------------------------------7-7-----|
Bb|-0-0-0-0-0--0-0-0-0-8--0-5--0-0-0-0-3--0-0-0-0-7--0---------|

    solo riff 2
Ab|---------------------------------------------------------|
Eb|---------------------------------------------------------|
Bb|---------------------------------------------------------|
F |--------8------------------------------------------------|
Bb|-000--00-----00008----0000003--0007--0-8--0-10-----------|



intro (guitars only) x2
intro riff x4
bridge 1
verse riff 1 x4
bridge 2
prechorus x2
chorus riff 1 x4
chorus riff 2
bridge 3 x2
breakdown x4
verse riff 2 x2
bridge 4
prechorus x2
chorus riff 1 x4
chorus riff 2
bass solo
solo riff 1 x4
solo riff 2 x4
chorus riff x3
chorus riff 2
bridge 3 x2

This tablature was provided, written, and uploaded by the performing artist.
It does not violate any copyright laws. For more songs, go to myspace.com/thethirdtemplemetal

 key
h   - hammer on
p   - pull-off
b   - bend to
r   - release to
~   - vibrato
/   - slide up
\   - slide down
(x) - sustain note

            
            
Suggest correction
Creating personal tab
Creating personal tab
You can edit any tab online and save it as your Personal.

You can edit, replace or remove any tab part or add personal notes – all changes will be seen only by you.

Personal tabs can be accessed anytime from any device, even offline.
Learn more »
Give kudos to tab author, rate the tab!
1 2 3 4 5
comments
print report bad tab
guest
You may want to rate the tab now too:
select rating
Wanna post a correction for this tab? Suggest correction