Oops, an error
Loading. Please wait.

Trapped In A Nightmare - Puddle Of Skulls tab

46 views 1 this week
no commentswrite comment
1 2 3 4 5
3 more votes to show rating
add to favorites
×
Save as Personal and add changes to this tab that will be seen only by you. Learn more ›
×
You can save this tab as Personal to edit and correct it or add notes. All changes will be seen only by you. Learn more »
launch autoscroll
font size
0
reset
how to read this tab
guitar tuner
edit
Autoscroll
slow
fast
+/-
esc
set tempo
stop
-------------------------------------------------------------------------------
                Trapped in a Nightmare - Puddle of Skulls
-------------------------------------------------------------------------------
Tabbed by: metalmonkey147
Email:

Tuning: Drop C

This is a short tune i wrote recently, gonna throw the tab up here because
i thought it was a pretty sick song. Have fun playing.


 Both (for now)
|---------------------------------------------------------------------------|
|---------------------------------------------------------------------------|
|---------------------------------------------------------------------------|
|-----7---8-7---7-----8-7---5-5-5-----7---8-7---7-----8-7-------------------|
|-0-0-5-0-6-5-0-5-0-0-6-5-0-3-3-3-0-0-5-0-6-5-0-5-0-0-6-5-0-8-8-8-----------|
|-0-0---0-----0---0-0-----0-------0-0---0-----0---0-0-----0-8-8-8-----------|
  . .   .     .   . .     .       . .   .     .   . .     .

|---------------------------------------------------------------------------|
|---------------------------------------------------------------------------|
|---------------------------------------------------------------------------|
|-----7---8-7---7-----8-7---5-5-5-------------------------------------------|
|-0-0-5-0-6-5-0-5-0-0-6-5-0-3-3-3-5-----3-----6-----3-----5---3-------------|
|-0-0---0-----0---0-0-----0-------5-----3-----6-----3-----5---3-------------|
  . .   .     .   . .     .

|---------------------------------------------------------------------------|
|---------------------------------------------------------------------------|
|---------------------------------------------------------------------------|
|-----7---8-7---7-----8-7---5-5-5-----7---8-7---7-----8-7-------------------|
|-0-0-5-0-6-5-0-5-0-0-6-5-0-3-3-3-0-0-5-0-6-5-0-5-0-0-6-5-0-8-8-8-----------|
|-0-0---0-----0---0-0-----0-------0-0---0-----0---0-0-----0-8-8-8-----------|
  . .   .     .   . .     .       . .   .     .   . .     .

|---------------------------------------------------------------------------|
|---------------------------------------------------------------------------|
|---------------------------------------------------------------------------|
|-----7---8-7---7-----8-7---5-5-5-------------------------------------------|
|-0-0-5-0-6-5-0-5-0-0-6-5-0-3-3-3-5-----3-----1-----0---0-0-----------------|
|-0-0---0-----0---0-0-----0-------5-----3-----1-----0---0-0---0-0-----------|
  . .   .     .   . .     .                         .   . .   . .

|---------------------------------------------------------------------------|
|---------------------------------------------------------------------------|
|---------------------------------------------------------------------------|
|-----7---8-7-------------------------7---8-7-------------------------------|
|---------------5-7---8-7-------------------------3-5-6---------------------|
|-0-0---0-----0-----0-----0-8-7-5-0-0---0-----0-0-------3-5-3-5b~-----------|
  . .   .     .     .     .       . .   .     . .             *

|---------------------------------------------------------------------------|
|---------------------------------------------------------------------------|
|---------------------------------------------------------------------------|
|-----7---8-7---------------------------------------------------------------|
|---------------5-7---8-7---------0-0-5---0-6---0-1---0-3---0-1-------------|
|-0-0---0-----0-----0-----0-8-7-5-0-0-5---0-6---0-1---0-3---0-1-------------|
  . .   .     .     .     .       . .     .     .     .     .

|---------------------------------------------------------------------------|
|---------------------------------------------------------------------------|
|---------------------------------------------------------------------------|
|-----7---8-7-------------------------7---8-7-----6-3-5-------5-------------|
|---------------5-7---8-7-------------------------------6-3-5---------------|
|-0-0---0-----0-----0-----0-8-7-5-0-0---0-----0-0---------------------------|
  . .   .     .     .     .       . .   .     . .             *

|---------------------------------------------------------------------------|
|---------------------------------------------------------------------------|
|---------------------------------------------------------------------------|
|-----7---8-7---------------------------------------------------------------|
|---------------5-7---8-7---------0-0-5---0-6---0-1---0-3---0-1-------------|
|-0-0---0-----0-----0-----0-8-7-5-0-0-5---0-6---0-1---0-3---0-1-------------|
  . .   .     .     .     .       . .     .     .     .     .

|---------------------------------------------------------------------------|
|---------------------------------------------------------------------------|
|---------------------------------------------------------------------------|
|---------------------------------------------------------------------------|
|-0-0-8---0-7---0-3---0-6\--1-0-1-0-0-8---0-7---0-3---3-5-5-5-5-5-----------|
|-0-0-8---0-7---0-3---0-6\--1-0-1-0-0-8---0-7---0-3---3-5-5-5-5-5-----------|
  . .     .     .     .           . .     .     .     .   . . . .

|---------------------------------------------------------------------------|
|---------------------------------------------------------------------------|
|---------------------------------------------------------------------------|
|---------------------------------------------------------------------------|
|-0-0-8---0-7---0-3---0-6\--1-0-1-0-0-1-0-0-1---0-1-0-0-1-------------------|
|-0-0-8---0-7---0-3---0-6\--1-0-1-0-0-1-0-0-1---0-1-0-0-1----00-12\\--------|
  . .     .     .     .           . .   . .     .   . .

 Lead
|-----------------------------------------------------------------------------|
|-----------------------------------------------------------------------------|
|-7-----7-----9-----10-----9-10-9---------------------------------------------|
|---7-7---7-7---7-7----7-7--------10-8-------8-------10-------8-------8-7-5-7-|
|--------------------------------------10-10---10-10----10-10---10-10---------|
|-----------------------------------------------------------------------------|
  . . . . . . . . . . . . . . . . . . . . . . . . . . . . . . . . . . . . . .

 Rhythm
|------------------------------------------------------------------|
|------------------------------------------------------------------|
|------------------------------------------------------------------|
|------------------------------------------------------------------|
|------------------------------------------------------------------|
|-0-0-0-0-0-0-0-0-0-0-0-0-0-0-0-0-8-8-8-8-8-8-5-5-5-5-5-5-5-5-5-5--|
  . . . . . . . . . . . . . . . . . . . . . . . . . . . . . . . .

 Lead
|-----------------------------------------------------------------------------|
|-----------------------------------------------------------------------------|
|-7-----7-----9-----10-----9-10-9---------------------------------------------|
|---7-7---7-7---7-7----7-7--------10-8-------8-------10-------8-------8-7-5-7-|
|--------------------------------------10-10---10-10----10-10---10-10---------|
|-----------------------------------------------------------------------------|
  . . . . . . . . . . . . . . . . . . . . . . . . . . . . . . . . . . . . . .

 Rhythm
|------------------------------------------------------------------|
|------------------------------------------------------------------|
|------------------------------------------------------------------|
|------------------------------------------------------------------|
|------------------------------------------------------------------|
|-0-0-0-0-0-0-0-0-0-0-0-0-0-0-0-0-8-8-8-8-8-8-5-5-5-5-5-5-5-5-5-5--|
  . . . . . . . . . . . . . . . . . . . . . . . . . . . . . . . .

 Lead
|---------------------------------------------------------------------------|
|---------------------------------------------------------------------------|
|-7-----9-----10-----9-----9br----------------------------------------------|
|-7-7-7-7-7-7-7--7-7-7-7-7-------8--------10-------8--------10-------7br----|
|--------------------------------10-10-10-10-10-10-10-10-10-10-10-10--------|
|---------------------------------------------------------------------------|
    . .   . .    . .   . . *        .  .     .  .     .  .     .  .  *

 Rhythm
|------------------------------------------------------------------|
|------------------------------------------------------------------|
|------------------------------------------------------------------|
|------------------------------------------------------------------|
|-0-----------0-----0-------------8-----8-----3-----5-----5-6-5-3--|
|-0-0-0-0-0-0-0-0-0-0-0-0-0-0-0-0-8-8-8-8-8-8-3-3-3-5-5-5-5-6-5-3--|
    . . . . .   . .   . . . . . .   . .   . .   . .   . .

 Lead
|---------------------------------------------------------------------------|
|---------------------------------------------------------------------------|
|-7-----9-----10-----9-----9br----------------------------------------------|
|-7-7-7-7-7-7-7--7-7-7-7-7-------8--------10-------8--------10-------7br----|
|--------------------------------10-10-10-10-10-10-10-10-10-10-10-10--------|
|---------------------------------------------------------------------------|
    . .   . .    . .   . . *        .  .     .  .     .  .     .  .  *

 Rhythm
|------------------------------------------------------------------|
|------------------------------------------------------------------|
|------------------------------------------------------------------|
|------------------------------------------------------------------|
|-0-----------0-----0-------------8-----8-----3-----5-----5-6-5-3--|
|-0-0-0-0-0-0-0-0-0-0-0-0-0-0-0-0-8-8-8-8-8-8-3-3-3-5-5-5-5-6-5-3--|
    . . . . .   . .   . . . . . .   . .   . .   . .   . .

 Lead
|------------------------------------------------------------------|
|------------------------------------------------------------------|
|------------------------------------------------------------------|
|-3-----3-----3-----3-----5---5-3/7-----7-----8-----7-----8-7-5-7--|
|------------------------------------------------------------------|
|-----------------------------------0-0---0-0---0-0---0-0----------|
                                    . .   . .   . .   . .

 Rhythm
|------------------------------------------------------------------|
|------------------------------------------------------------------|
|------------------------------------------------------------------|
|------------------------------------------------------------------|
|-3-----3-----3-----3-----3---3---0-----0-----0-----0-----0--0-----|
|-3-----3-----3-----3-----3---3---0-0-0-0-0-0-0-0-0-0-0-0-0--0-----|
                                    . .   . .   . .   . .
 Lead
|------------------------------------------------------------------|
|------------------------------------------------------------------|
|------------------------------------------------------------------|
|-3-----3-----3-----3-----5---5---------------------------77777777-|
|---------------------------------0-000-0-000-0-000-0-000-55555555-|
|---------------------------------0-000-0-000-0-000-0-000----------|
                                  . ...   ... . ...   ... ........

 Rhythm
|------------------------------------------------------------------|
|------------------------------------------------------------------|
|------------------------------------------------------------------|
|------------------------------------------------------------------|
|-3-----3-----3-----3-----3---3---0-000-0-000-0-000-0-000-55555555-|
|-3-----3-----3-----3-----3---3---0-000-0-000-0-000-0-000-55555555-|
                                  . ...   ... . ...   ... ........

 Lead
|------------------------------------------------------------------|
|------------------------------------------------------------------|
|------------------------------------------------------------------|
|-3-----3-----3-----3-----5---5-3/7-----7-----8-----7-----8-7-5-7--|
|------------------------------------------------------------------|
|-----------------------------------0-0---0-0---0-0---0-0----------|
                                    . .   . .   . .   . .

 Rhythm
|------------------------------------------------------------------|
|------------------------------------------------------------------|
|------------------------------------------------------------------|
|------------------------------------------------------------------|
|-3-----3-----3-----3-----3---3---0-----0-----0-----0-----0--0-----|
|-3-----3-----3-----3-----3---3---0-0-0-0-0-0-0-0-0-0-0-0-0--0-----|
                                    . .   . .   . .   . .

 Lead
|------------------------------------------------------------------|
|------------------------------------------------------------------|
|------------------------------------------------------------------|
|-3-----3-----3-----3-----5---5-------------------77777777-7-------|
|---------------------------------0-000-0-000-000-55555555-5-------|
|---------------------------------0-000-0-000-000------------------|
                                  . ...   ... ... ........

 Rhythm
|------------------------------------------------------------------|
|------------------------------------------------------------------|
|------------------------------------------------------------------|
|------------------------------------------------------------------|
|-3-----3-----3-----3-----3---3---0-000-0-000-000-55555555-5-------|
|-3-----3-----3-----3-----3---3---0-000-0-000-000-55555555-5-------|
                                  . ...   ... ... ........

 Both (for now)
|---------------------------------------------------------------------------|
|---------------------------------------------------------------------------|
|---------------------------------------------------------------------------|
|-----7---8-7-------------------------7---8-7-------------------------------|
|---------------5-7---8-7-------------------------3-5-6---------------------|
|-0-0---0-----0-----0-----0-8-7-5-0-0---0-----0-0-------3-5-3-5b~-----------|
  . .   .     .     .     .       . .   .     . .             *

|---------------------------------------------------------------------------|
|---------------------------------------------------------------------------|
|---------------------------------------------------------------------------|
|-----7---8-7---------------------------------------------------------------|
|---------------5-7---8-7---------0-0-5---0-6---0-1---0-3---0-1-------------|
|-0-0---0-----0-----0-----0-8-7-5-0-0-5---0-6---0-1---0-3---0-1-------------|
  . .   .     .     .     .       . .     .     .     .     .

|---------------------------------------------------------------------------|
|---------------------------------------------------------------------------|
|---------------------------------------------------------------------------|
|-----7---8-7-------------------------7---8-7-----653653653653653-----------|
|---------------5-7---8-7----------------------------------------6----------|
|-0-0---0-----0-----0-----0-8-7-5-0-0---0-----0-0---------------------------|
  . .   .     .     .     .       . .   .     . .

|---------------------------------------------------------------------------|
|---------------------------------------------------------------------------|
|---------------------------------------------------------------------------|
|-----7---8-7---------------------------------------------------------------|
|---------------5-7---8-7---------0-0-5---0-6---0-1---0-3---0-1-------------| <
|-0-0---0-----0-----0-----0-8-7-5-0-0-5---0-6---0-1---0-3---0-1-------------| < 
possibly a slide at the end here, dont know yet
  . .   .     .     .     .       . .     .     .     .     .

|---------------------------------------------------------------------------|
|---------------------------------------------------------------------------|
|---------------------------------------------------------------------------|
|---------------------------------------------------------------------------|
|-0-0-8---0-7---0-3---0-6\--1-0-1-0-0-8---0-7---0-3---3-5-5-5-5-5-----------|
|-0-0-8---0-7---0-3---0-6\--1-0-1-0-0-8---0-7---0-3---3-5-5-5-5-5-----------|
  . .     .     .     .           . .     .     .     .   . . . .

|---------------------------------------------------------------------------|
|---------------------------------------------------------------------------|
|---------------------------------------------------------------------------|
|---------------------------------------------------------------------------|
|-0-0-8---0-7---0-3---0-6\--1-0-1-0-0-1-0-0-1---0-1-0-0-1-0-0-1/------------|
|-0-0-8---0-7---0-3---0-6\--1-0-1-0-0-1-0-0-1---0-1-0-0-1-0-0-1/------------|
  . .     .     .     .           . .   . .     .   . .   . .

 Lead
|------------------------------------------------------------------|
|------------------------------------------------------------------|
|------------------------------------------------------------------|
|-3-----3-----3-----3-----5---5-3/7-----7-----8-----7-----8-7-5-7--|
|------------------------------------------------------------------|
|-----------------------------------0-0---0-0---0-0---0-0----------|
                                    . .   . .   . .   . .

 Rhythm
|------------------------------------------------------------------|
|------------------------------------------------------------------|
|------------------------------------------------------------------|
|------------------------------------------------------------------|
|-3-----3-----3-----3-----3---3---0-----0-----0-----0-----0--0-----|
|-3-----3-----3-----3-----3---3---0-0-0-0-0-0-0-0-0-0-0-0-0--0-----|
                                    . .   . .   . .   . .
 Lead
|------------------------------------------------------------------|
|------------------------------------------------------------------|
|------------------------------------------------------------------|
|-3-----3-----3-----3-----5---5---------------------------77777777-|
|---------------------------------0-000-0-000-0-000-0-000-55555555-|
|---------------------------------0-000-0-000-0-000-0-000----------|
                                  . ...   ... . ...   ... ........

 Rhythm
|------------------------------------------------------------------|
|------------------------------------------------------------------|
|------------------------------------------------------------------|
|------------------------------------------------------------------|
|-3-----3-----3-----3-----3---3---0-000-0-000-0-000-0-000-55555555-|
|-3-----3-----3-----3-----3---3---0-000-0-000-0-000-0-000-55555555-|
                                  . ...   ... . ...   ... ........

 Lead
|------------------------------------------------------------------|
|------------------------------------------------------------------|
|------------------------------------------------------------------|
|-3-----3-----3-----3-----5---5-3/7-----7-----8-----7-----8-7-5-7--|
|------------------------------------------------------------------|
|-----------------------------------0-0---0-0---0-0---0-0----------|
                                    . .   . .   . .   . .

 Rhythm
|------------------------------------------------------------------|
|------------------------------------------------------------------|
|------------------------------------------------------------------|
|------------------------------------------------------------------|
|-3-----3-----3-----3-----3---3---0-----0-----0-----0-----0--0-----|
|-3-----3-----3-----3-----3---3---0-0-0-0-0-0-0-0-0-0-0-0-0--0-----|
                                    . .   . .   . .   . .
 Lead
|------------------------------------------------------------------|
|------------------------------------------------------------------|
|------------------------------------------------------------------|
|-3-----3-----3-----3-----5---5---------------------------88888888-|
|---------------------------------0-000-0-000-0-000-0-000-66666666-|
|---------------------------------0-000-0-000-0-000-0-000----------|
                                  . ...   ... . ...   ... ........

 Rhythm
|------------------------------------------------------------------|
|------------------------------------------------------------------|
|------------------------------------------------------------------|
|------------------------------------------------------------------|
|-3-----3-----3-----3-----3---3---0-000-0-000-0-000-0-000-66666666-|
|-3-----3-----3-----3-----3---3---0-000-0-000-0-000-0-000-66666666-|
                                  . ...   ... . ...   ... ........

 Both (for now)
|------------------------------------------------------------------|    |-----------|
|------------------------------------------------------------------|    |-----------|
|--------------------------------------------------------5/7-8-----|    |-----------|
|--------------------------------------------------------X-X-X-----| OR |--5-7-5/8--|
|-0-0-0-0-----0-0-0-0---------------0-0-0-0-----0-0-0-0--3/5-6-----|    |-----------|
|-0-0-0-0-----0-0-0-0---------------0-0-0-0-----0-0-0-0------------|    |-----------|
    . . X       . . X                 . . X       . . X                    * * *

|---------------------------------------------------------------------------|
|---------------------------------------------------------------------------|
|---------------------------------------------------------------------------|
|---------------------------------------------------------------------------|
|-0-0-0-0-----0-0-0-0---------------0-0-0-0----0---6---------------6\-------|
|-0-0-0-0-----0-0-0-0---------------0-0-0-0----0---6----hold-------6\-------|
    . . X       . . X                 . .      .

 Slower & heavier
|---------------------------------------------------------------------------------|
|---------------------------------------------------------------------------------|
|---------------------------------------------------------------------------------|
|---------------------------------------------------------------------------------|
|-0----0-0----0-0-----0-0------0-3---3---0----0-0-----0-0-----0-0-----------------|
|-0----0-0----0-0-----0-0------0-3---3---0----0-0-----0-0-----0-0----0-31013101---|
       . .    .       . .      .              . .     .       . .    . ........

|------------------------------------------------------------------------------|
|------------------------------------------------------------------------------|
|------------------------------------------------------------------------------|
|------------------------------------------------------------------------------|
|-0----0-0----0-0-----0-0------0-3---3---0----0-0----0-------------------356---|
|-0----0-0----0-0-----0-0------0-3---3---0----0-0----0----0-6663336665556------|
       . .    .       . .      .              . .    .    . ............

|---------------------------------------------------------------------------------|
|---------------------------------------------------------------------------------|
|---------------------------------------------------------------------------------|
|---------------------------------------------------------------------------------|
|-0----0-0----0-0-----0-0------0-3---3---0----0-0-----0-0-----0-0-----------------|
|-0----0-0----0-0-----0-0------0-3---3---0----0-0-----0-0-----0-0----0-31013101---|
       . .    .       . .      .              . .     .       . .    . ........

|-------------------------------------------------------------------------------|
|-------------------------------------------------------------------------------|
|-------------------------------------------------------------------------------|
|-------------------------------------------------------7------------------7\---|
|-0----0-0----0-0-----0-0------0-3---3---0----0-0-----0-5------------------5\---|
|-0----0-0----0-0-----0-0------0-3---3---0----0-0-----0-5----hold-(5count)-5\---|
       . .    .       . .      .              . .     .

|---------------------------------------------------------------------------|
|---------------------------------------------------------------------------|
|---------------------------------------------------------------------------|
|-----7---8-7---7-----8-7---5-5-5-----7---8-7---7-----8-7-------------------|
|-0-0-5-0-6-5-0-5-0-0-6-5-0-3-3-3-0-0-5-0-6-5-0-5-0-0-6-5-0-8-8-8-----------|
|-0-0---0-----0---0-0-----0-------0-0---0-----0---0-0-----0-8-8-8-----------|
  . .   .     .   . .     .       . .   .     .   . .     .

|--------------------------------------------------------------------------------|
|--------------------------------------------------------------------------------|
|--------------------------------------------------------------------------------|
|-----5---8-7---7-----8-7-----8-7------------------------------------------------|
|-0-0-7-0-6-5-0-5-0-0-6-5-0-0-6-5-0-0-6-5---8-5---8-7---10-7---8\---0--let-ring--|
|-0-0---0-----0---0-0-----0-0-----0-0-5-5---5-5---7-7---7--7---7\---0------------|
  . .   .     .   . .     . .     . .


************************************

| x   quick stop
| .   palm mute
| /   slide up
| \   slide down
| h   hammer-on
| p   pull-off
| ~   vibrato
| *   harmonic
| x   Mute note
| b   Bend
| pb  Pre-bend
| br  Bend release
| pbr Pre-bend release
| brb Bend release bend

************************************

            
            
Suggest correction
Creating personal tab
Creating personal tab
You can edit any tab online and save it as your Personal.

You can edit, replace or remove any tab part or add personal notes – all changes will be seen only by you.

Personal tabs can be accessed anytime from any device, even offline.
Learn more »
Give kudos to tab author, rate the tab!
1 2 3 4 5
comments
print report bad tab
guest
You may want to rate the tab now too:
select rating
Wanna post a correction for this tab? Suggest correction