Oops, an error
Loading. Please wait.

Val Emmich - The Lucky Ones tab

226 views 1 this week
no commentswrite comment
1 2 3 4 5
3 more votes to show rating
add to favorites
×
Save as Personal and add changes to this tab that will be seen only by you. Learn more ›
×
You can save this tab as Personal to edit and correct it or add notes. All changes will be seen only by you. Learn more »
launch autoscroll
font size
0
reset
how to read this tab
guitar tuner
edit
Autoscroll
slow
fast
+/-
esc
set tempo
stop
Author
ARTIST: Val Emmich
SONG: The Lucky Ones
ALBUM: Little Daggers
TABBED BY: DKach
QUESTIONS/CORRECTIONS: email austin043@aol.com

Reviewed and approved by Val himself!

INTRO (electric guitar) do do do do do (x2)
e|-------|-------|--------------------|
B|-------|-------|--------------------|
G|-------|-------|-------------999999-|
D|-99999-|-99999-|-9-9--6-4-2--999999-|
A|-99999-|-99999-|-9-9--6-4-2--777777-|
E|-77777-|-77777-|-7-7--4-2-0---------|

VERSES (acoustic in a strumming fashion) So it starts like this

e|-----------------|-----------------|
B|-----------------|-----------------|
G|-----------------|-----------------|
D|-9-9-9-9-9-9-9-9-|-6-6-6-6-6-6-6-6-|
A|-9-9-9-9-9-9-9-9-|-6-6-6-6-6-6-6-6-|
E|-7-7-7-7-7-7-7-7-|-4-4-4-4-4-4-4-4-|

end each verse with (carry on my back, I'll have bruises on my back)
e|---------------|
B|---------------|
G|--------999999-|
D|-6-4-2--999999-|
A|-6-4-2--777777-|
E|-4-2-0---------|


CHORUS I'm waiting, waiting, but nothing comes

x1
e|-----------------|-----------------|-----------------|-----------------|
B|-----------------|-----------------|-----------------|-----------------|
G|-----------------|-----------------|-----------------|-----------------|
D|-9-9-9-9-9-9-9-9-|-4-4-4-4-4-4-4-4-|-6-6-6-6-6-6-6-6-|-2-2-2-2-9-9-9-9-|
A|-9-9-9-9-9-9-9-9-|-4-4-4-4-4-4-4-4-|-6-6-6-6-6-6-6-6-|-2-2-2-2-7-7-7-7-|
E|-7-7-7-7-7-7-7-7-|-2-2-2-2-2-2-2-2-|-4-4-4-4-4-4-4-4-|-0-0-0-0-0-0-0-0-|

I'm fading, fading, should turn and run (let last 0-2 ring on 2nd chorus only)
e|-----------------|-----------------|-----------------|---------|
B|-----------------|-----------------|-----------------|---------|
G|-----------------|-----------------|-----------------|---------|
D|-9-9-9-9-9-9-9-9-|-4-4-4-4-4-4-4-4-|-6-6-6-6-6-6-6-6-|-2-----2-|
A|-9-9-9-9-9-9-9-9-|-4-4-4-4-4-4-4-4-|-6-6-6-6-6-6-6-6-|-2-----2-|
E|-7-7-7-7-7-7-7-7-|-2-2-2-2-2-2-2-2-|-4-4-4-4-4-4-4-4-|-0-----0-|

Goes back to intro

Repeat verses and chorus like above.

The bridge (when he's shouting "waiting...waiting") is the same as the first part of the 
when he's singing the same thing  (7-9-9,4-6-6)

            
            
Suggest correction
Creating personal tab
Creating personal tab
You can edit any tab online and save it as your Personal.

You can edit, replace or remove any tab part or add personal notes – all changes will be seen only by you.

Personal tabs can be accessed anytime from any device, even offline.
Learn more »
Give kudos to tab author, rate the tab!
1 2 3 4 5
comments
print report bad tab
guest
You may want to rate the tab now too:
select rating
Wanna post a correction for this tab? Suggest correction