Oops, an error
Loading. Please wait.

Vanilla Gloom - Vultures bass

31 views 1 this week
no commentswrite comment
1 2 3 4 5
3 more votes to show rating
add to favorites
×
Save as Personal and add changes to this tab that will be seen only by you. Learn more ›
×
You can save this tab as Personal to edit and correct it or add notes. All changes will be seen only by you. Learn more »
launch autoscroll
font size
0
reset
guitar tuner
edit
Autoscroll
slow
fast
+/-
esc
set tempo
stop
Author
Difficulty
-------------------------------------------------------------------------------
                              Vultures - Vanilla Gloom
-------------------------------------------------------------------------------
                          www.vanillagloom.bandcamp.com
                                     
                                  from 'Vexed'

Tabbed by: Megan O'Kane
E-mail: N/A

Tuning: Standard


(Guitar only)

Intro Bassline

G|---------------------------------|
D|---------------------------------| x2
A|---------------------------------|
E|-0-0-0-0-0-0-0-0-0-0-0-0-0-0-5-3-|



Verse

G|---------------------------------|
D|---------------------------------| 
A|---------------------------------|
E|-0-0-0-0-0-0-0-0-0-0-0-0-0-0-5-3-|
     
       Vultures in the trees

G|---------------------------------|
D|---------------------------------| 
A|---------------------------------|
E|-0-0-0-0-0-0-0-0-0-0-0-0-0-0-5-3-|

   I'm living but....at me

G|---------------------------------|
D|---------------------------------| 
A|---------------------------------|
E|-0-0-0-0-0-0-0-0-0-0-0-0-0-0-5-3-|

      My skin is so deep

G|---------------------------------|
D|---------------------------------| 
A|---------------------------------|
E|-0-0-0-0-0-0-0-0-0-0-0-0-0-0-5-3-|

   They couldn't....to me



Chorus

G|-------------------------------------------------------------------|
D|-------------------------------------------------------------------|
A|---------------------------------7---7-7-7-7-7-5---5-5-5-5-5-4-3-2-|
E|-2---2---2-2-2-3---3-3-3-3-3-3-3-----------------------------------|
                                                                                     
            Go away              I ain't here to stay                 

G|--------------------------------------------------------------|
D|--------------------------------------------------------------| 
A|-2-2-2-2-2-3---3-3-3-3-3-3-3-7---7-7-7-7-7-5---5-5-5-5-5-5-5--|
E|--------------------------------------------------------------|

    Leave me alone              I'm better off on my own   



Verse

G|---------------------------------|
D|---------------------------------| 
A|---------------------------------|
E|-0-0-0-0-0-0-0-0-0-0-0-0-0-0-5-3-|
     
       Follow me back home

G|---------------------------------|
D|---------------------------------| 
A|---------------------------------|
E|-0-0-0-0-0-0-0-0-0-0-0-0-0-0-5-3-|

   With eyes...as stone

G|---------------------------------|
D|---------------------------------| 
A|---------------------------------|
E|-0-0-0-0-0-0-0-0-0-0-0-0-0-0-5-3-|

      Pick out my bones

G|---------------------------------|
D|---------------------------------| 
A|---------------------------------|
E|-0-0-0-0-0-0-0-0-0-0-0-0-0-0-5-3-|

    If you wanna...me moan



Chorus

G|-------------------------------------------------------------------|
D|-------------------------------------------------------------------|
A|---------------------------------7---7-7-7-7-7-5---5-5-5-5-5-4-3-2-|
E|-2---2---2-2-2-3---3-3-3-3-3-3-3-----------------------------------|
                                                                                     
            Go away              I ain't here to stay                 

G|-----------------------------------------------------------------|
D|-----------------------------------------------------------------| 
A|-2-2-2-2-2-3---3-3-3-3-3-3-3-7---7-7-7-7-7-5---5-5-5-5-5-5-5-4-3-|
E|-----------------------------------------------------------------|

    Leave me alone              I'm better off on my own   


G|-------------------------------------------------------------------|
D|-------------------------------------------------------------------|
A|---------------------------------7---7-7-7-7-7-5---5-5-5-5-5-4-3-2-|
E|-2---2---2-2-2-3---3-3-3-3-3-3-3-----------------------------------|
                                                                                     
            Go away              I ain't here to stay                 

G|--------------------------------------------------------------|
D|--------------------------------------------------------------| 
A|-2-2-2-2-2-3---3-3-3-3-3-3-3-7---7-7-7-7-7-5---5-5-5-5-5-5-5--|
E|--------------------------------------------------------------|

    Leave me alone              I'm better off on my own   



Bridge

G|--------------------------------------------------------------------|
D|---------------------2-------2---------4-----4---------2-------2----|  
A|-----2-----2---3---3---3-2-3---3---5-----5-5---5-0---0---0-0-0---2--|  
E|-0-----0-0----------------------------------------------------------|

G|--------------------------------------------------------------------|
D|---------------------2-------2---------4-----4---------2-------2----|  
A|-----2-----2---3---3---3-2-3---3---5-----5-5---5-0---0---0-0-0---2--|  
E|-0-----0-0----------------------------------------------------------|
       
       Baby it's alright        Come out

G|--------------------------------------------------------------------|
D|---------------------2-------2---------4-----4---------2-------2----|  
A|-----2-----2---3---3---3-2-3---3---5-----5-5---5-0---0---0-0-0---2--|  
E|-0-----0-0----------------------------------------------------------|

       Baby it's alright     Spit it out

G|--------------------------------------------------------------------|
D|---------------------2-------2---------4-----4---------2-------2----|  
A|-----2-----2---3---3---3-2-3---3---5-----5-5---5-0---0---0-0-0---2--|  
E|-0-----0-0----------------------------------------------------------|

       Baby it's alright        Get out

G|--------------------------------------------------------------------|
D|---------------------2-------2---------4-----4---------2-------2----|  
A|-----2-----2---3---3---3-2-3---3---5-----5-5---5-0---0---0-0-0---2--|  
E|-0-----0-0----------------------------------------------------------|

       Baby it's alright        Without


 
Chorus/End

G|-----------------------------------------------------------------|
D|-----------------------------------------------------------------|
A|---------------------------------7---7-7-7/2--/5---5-5-5-5-4-3-2-|
E|-2---2---2-2-2-3---3-3-3-3-3-3-3---------------------------------|
                                                                       }  x2
G|-----------------------------------------------------------------|
D|-----------------------------------------------------------------|  
A|-2-2-2-2-2-3---3-3-3-3-3-3-3-7---7-7-7/2--/5---5-5-5-5-5-5-5-4-3-|
E|-----------------------------------------------------------------|


G|-----------------------------------------------------------------|
D|-----------------------------------------------------------------|
A|---------------------------------7---7-7-7/2--/5---5-5-5-5-4-3-2-|
E|-2---2---2-2-2-3---3-3-3-3-3-3-3---------------------------------|
                                                                       }  x3
G|-----------------------5-----------------------------------------|
D|---------------------5-------------------------------------------|
A|-2-2-2-1-2-3---3-3-3---------7---7-7-7/2--/5---5-5-5-5-5-5-5-4-3-|
E|-----------------------------------------------------------------|

            
            
Suggest correction
Creating personal tab
Creating personal tab
You can edit any tab online and save it as your Personal.

You can edit, replace or remove any tab part or add personal notes – all changes will be seen only by you.

Personal tabs can be accessed anytime from any device, even offline.
Learn more »
Give kudos to tab author, rate the tab!
1 2 3 4 5
comments
print report bad tab
guest
You may want to rate the tab now too:
select rating
Wanna post a correction for this tab? Suggest correction