Oops, an error
Loading. Please wait.

Wake Up Call - Wake Up Call tab

version 2
version 2

Whole song

130 views 1 this week
no commentswrite comment
1 2 3 4 5
2 more votes to show rating
add to favorites
×
Save as Personal and add changes to this tab that will be seen only by you. Learn more ›
×
You can save this tab as Personal to edit and correct it or add notes. All changes will be seen only by you. Learn more »
launch autoscroll
font size
0
reset
how to read this tab
guitar tuner
edit
Autoscroll
slow
fast
+/-
esc
set tempo
stop
----------------------------------------------------------------------------
                        Wake Up Call - Wake Up Call
----------------------------------------------------------------------------
Tabbed by: 
Email:

Tuning: eBGDAE

Main Riff/Chorus:
e|-----------------------------------------|
B|-----------------------------------------|
G|-----------------------------------------|
D|-----------777-5-55-----------777-5-55---|
A|-5-55-7-77-555-3-33-5-55-7-77-555-3-33---|
E|-3-33-5-55----------3-33-5-55------------|

e|-----------------------------------------|
B|-----------------------------------------|
G|-----------------------------------------|
D|-----------777-5-55-88888888-77777777----|
A|-5-55-7-77-555-3-33-66666666-55555555----|
E|-3-33-5-55-------------------------------|

Verse:
e|---------------------------------------0-|
B|---------------------------------------0-|
G|-----------------------------------------|
D|-----------77777777-----------777-5555---|
A|-5555-7777-55555555-5555-7777-555-3333---|
E|-3333-5555----------3333-5555------------|
pm .... .... ........ .... .... ... ....
e|-----------------------------------------|
B|-----------------------------------------|
G|-----------------------------------------|
D|-----------77777777-88888888-77777777----|
A|-5555-7777-55555555-66666666-55555555----|
E|-3333-5555-------------------------------|
pm .... .... ........

Chorus
Verse
Chorus
Bass Breakdown:
e|--------------------------------------------------|
B|--------------------------------------------------|
G|--------------------------------------------------|
D|--------------------------------------------------|
A|-5~~~~~~~-555~~~~~~~-555~~~~~~~-------------------|
E|-3~~~~~~~-333~~~~~~~-333~~~~~~~-------------------|

e|--------------------------------------------------|
B|--------------------------------------------------|
G|--------------------------------------------------|
D|--------------------------------88888888-77777777-|
A|--------------------------------66666666-55555555-|
E|--------------------------------------------------|

Complete Song Structure:

Main Riff/Chorus x3
Verse x2
Main Riff/Chorus x1
Verse x1
Main Riff/Chorus x2
Bass Breakdown
Main Riff/Chorus x2

            
            
Suggest correction
Creating personal tab
Creating personal tab
You can edit any tab online and save it as your Personal.

You can edit, replace or remove any tab part or add personal notes – all changes will be seen only by you.

Personal tabs can be accessed anytime from any device, even offline.
Learn more »
Give kudos to tab author, rate the tab!
1 2 3 4 5
comments
print report bad tab
guest
Wanna post a correction for this tab? Suggest correction