Oops, an error
Loading. Please wait.

Wes Carr - You tab

4,154 views 1 this week
1 commentread comment
1 2 3 4 5
x 6
add to favorites
×
Save as Personal and add changes to this tab that will be seen only by you. Learn more ›
×
You can save this tab as Personal to edit and correct it or add notes. All changes will be seen only by you. Learn more »
launch autoscroll
font size
0
reset
how to read this tab
guitar tuner
edit
Autoscroll
slow
fast
+/-
esc
set tempo
stop
Author
"You" by wes carr

Now this is my second tab so yeah. If you wanna comment or say anythin send me a
message on "cheezy_rulz@hotmail.com"

Riff 1                                                        Riff 2
||----------------------------------|--------------------------------------|
||----------------------------------|--------------------------------------|
||----8---8---8---8---8---8------7--|------8---8---8---8---8---8-----------|
||----9---9---9---9---9---9--x---7--|------9---9---9---9---9---9-----------|
||-9--9---9---9---9---9---9--x---5--|--9---9---9---9---9---9---9-----------|
||-7--7---7---7---7---7---7---------|--7---7---7---7---7---7---7-----------|

Riff 3
||--------------------------------------------------------------|
||--------------------------------------------------------------|
||--------------------------------------------------------------|
||--9--9--9--9-----5--5--5--5-----4--4--4--4-----9--9--9--9-----|
||--9--9--9--9-----5--5--5--5-----4--4--4--4-----9--9--9--9-----|
||--7--7--7--7-----3--3--3--3-----2--2--2--2-----7--7--7--7-----|

(Intro)  Riff 1,  Riff2


Riff  1
Got guitars I have never played

Riff 1
Every Elvis album ever made

Riff 1
Got the cars that I should learn to drive

Riff 2
could have a house that would blow your mind

(Chorus)

Riff 3
You can take what I got cause I don’t got nothing, worth havin I if I aint got you

Riff 3
You can take what you want cause I don’t want nothing, I’m nothing, if I don’t have you. Yeah

(Harmonica solo)


Now this is something i transcribed from harmonica to guitar, but i think it still 
good. With some distortion

||----------------------------------|----------------------------------|
||----------------------------------|----------------------------------|
||--9b11-9b11-9b11---7------------7-|--9b11-9b11-9b11---7------------7-|
||----------------------9---7---9---|----------------------9---7---9---|
||----------------------------------|----------------------------------|
||----------------------------------|----------------------------------|

||--------------------------------------------------------------------|
||------10-10--------10-10--------10-10-------------------------------|
||-9b11---------9b11---------9b11---------9p7------------9~~~~--------|
||---------------------------------------------9---7h9----------------|
||--------------------------------------------------------------------|
||--------------------------------------------------------------------|

Riff 1
I’ve been to places all around the world

Riff 1
I’ve seen the faces of so many girls

Riff 1
never thought I would fall in love

Riff 2
and with the songs I write I’m not enough

(Chorus)

Riff 3
You can have what I got cause I don’t got nothing worth havin, if I ain’t got you

Riff 3
You can take what you want cause I don’t want nothing,I’m nothing if I don’t have you


Riff 3
I could say but I’m nothing if I don’t have you

Riff 3
You can have what I got cause I don’t got nothing worth havin, if I ain’t got you

            
            
Suggest correction
Creating personal tab
Creating personal tab
You can edit any tab online and save it as your Personal.

You can edit, replace or remove any tab part or add personal notes – all changes will be seen only by you.

Personal tabs can be accessed anytime from any device, even offline.
Learn more »
comments
print report bad tab
1 comment total.
0 reply
cjgrahams1261 111 Apr 09, 2014 01:08 AM

where's the bridge?

guest
You may want to rate the tab now too:
select rating
Wanna post a correction for this tab? Suggest correction