Oops, an error
Loading. Please wait.

You Me At Six - Save It For The Bedroom tab

version 2
version 2

Whole song

Interactive

6,717 views 1 this week
1 commentread comment
1 2 3 4 5
x 3
add to favorites
×
Save as Personal and add changes to this tab that will be seen only by you. Learn more ›
×
You can save this tab as Personal to edit and correct it or add notes. All changes will be seen only by you. Learn more »
launch autoscroll
font size
0
reset
how to read this tab
guitar tuner
edit
Autoscroll
slow
fast
+/-
esc
set tempo
stop
intro:

1st guitar(lead guitar)
e--------------------|
b--------------------|
g-----6--------------|
d-----x--------------|(keep strumming until second''1st guitar''riff comes) 
a-----4--------------|
e--------------------|

2nd guitar(rythym guitar)(comes in after a while)

e------------------------------\
b------------------------------ \
g--6---------------------------  \
d--6-32x--4------6------4------  /play this part two times 
a--4------4-32x--6-32x--4-32x-- /
e---------2------4------2------/ 

1st guitar(lead guitar)

e--------------------------\
b-------------------------- \
g-6-----13-----11-----10---  \
d-x-8x--x--8x--x--8x--x--8x  /2 x
a-4-----11-----9------8---- /
e--------------------------/

e--------------------------|
b--------------------------|
g-8-----10-----11-----13---|
d-x-8x--x--8x--x--8x--x--8x|
a-6-----8------9------11---|
e--------------------------|


e-----------------D---U---D---U---D----|
b-----------------14--14--14--14--14---|
g-6----5----6-----13--13--13--13--13---|
d-x-8x-x-8x-x-8x--x---x---x---x---x----|
a-4----3----4-----11--11--11--11--11---|
e--------------------------------------| 

 (do this twice) same as rythym

1st chorus: both guitars

e--------------------------------|
b--------------------------------|
g--6-----------------------------|
d--6-32x---4------8------4-------|
a--4-------4-32x--8-32x--4-32x---|
e----------2------6------2-------|

verse: both guitars

e----------------------|
b----------------------|
g--6-------------------|
d--6-8x--6-----4-------|(All downstrokes with pauses in beteween)
a--4-----6-8x--4-16x---|
e--------4-----2-------|

this is just the start of my tab, its my first one , i will finish it tomorrow thanks 

            
            
Suggest correction
Creating personal tab
Creating personal tab
You can edit any tab online and save it as your Personal.

You can edit, replace or remove any tab part or add personal notes – all changes will be seen only by you.

Personal tabs can be accessed anytime from any device, even offline.
Learn more »
Give kudos to tab author, rate the tab!
1 2 3 4 5
comments
print report bad tab
1 comment total.
-1 reply
gillehy 30 May 13, 2008 12:12 PM

the intro bit for the first guitar is x96 easier if you just count 3 32s

guest
You may want to rate the tab now too:
select rating
Wanna post a correction for this tab? Suggest correction