Oops, an error
Loading. Please wait.

Zachary Linn - Gun bass

31 views 1 this week
1 commentread comment
1 2 3 4 5
3 more votes to show rating
add to favorites
×
Save as Personal and add changes to this tab that will be seen only by you. Learn more ›
×
You can save this tab as Personal to edit and correct it or add notes. All changes will be seen only by you. Learn more »
launch autoscroll
font size
0
reset
guitar tuner
edit
Autoscroll
slow
fast
+/-
esc
set tempo
stop
'Gun - Zachary linn'
 Tuning (E A D G)              
 Q = 180

 4/4
  
   W                          W    W
G|---------------------------------------|
D|---------------------------------------|
A|---------------------------------------|
E|-0--------------------------5/---8/----|


     E E  E  S S S  E  E E  E E  E  S S S  E  E E  E E E E E E  3x
G||----------------------------------------------------9-----8--||--|
D||o-----------------------------------------------5-9---8-7---o||--|
A||o------8------------8---------8------------8----------------o||--|
E||--0-0-----0-0-0--0----7--0-0-----0-0-0--0----7---------------||--|


     E  E  H    H    E  E  S S S  E  E  E E E E  4x
G||----------------------------------------------||----|
D||o--------------------------------------------o||----|
A||o-------8----8----------8h9p8------------5---o||----|
E||--0--0------------0--0---------0--0--3-7---6--||----|


      E  E  E  E W        W         4x
G||---------------------------------||----|
D||o-------------------------------o||----|
A||o-10----------------------------o||----|
E||------0--0--0--------------------||----|


      E  E  E  E  Q       E  E  E  E   4x
G||------------------------------------||----|
D||o----------------------------------o||----|
A||o-10-------------------------------o||----|
E||------0--0--0--8\------2--0--3--0---||----|


     E  E  Q    Q    E  E  S S S  E  E  E E E E  4x
G||----------------------------------------------||----|
D||o--------------------------------------------o||----|
A||o-------8----8----------8h9p8------------5---o||----|
E||--0--0------------0--0---------0--0--3-7---6--||----|


     Q  S S S  S S S  Q  S S S  S S S
G||--------------------------------------|
D||o-------------------------------------|
A||o-------------------------------------|
E||--1--0-0-0--0-0-0--1--0-0-0--0-0-0----|


   Q  S S S  S S S  E E E E E E E E E E
G|-----------------------------------------|
D|--------------------------2--------------|
A|----------------------2-3---3-2---1------|
E|-1--0-0-0--0-0-0--2-3-----------3---2----|


   E  S S S  S S S  E  S S S  S S S  3x
G|-----------------------------------||----|
D|----------------------------------o||----|
A|----------------------------------o||----|
E|-1--0-0-0--0-0-0--1--0-0-0--0-0-0--||----|


   Q  S S S S S  S S S  E  Q  S S S S S  S S S  E  Q  S S S S S  S S S  E  E E E  E  E  E  E  E  5x
G|-----------------------------------------------------------------------------------------------||
D|----------------------------------------------------------------------------------------------o||
A|-------------------------------------------------------------------------2h3p2-----2--3--2--1-o||
E|-1--0-0-0-0-0--0-0-0--0--1--0-0-0-0-0--0-0-0--0--1--0-0-0-0-0--0-0-0--0---------1--------------||


G|----|
D|----|
A|----|
E|----|


      E  E  E  E        W        W         4x
G||----------------------------------------||----|
D||o--------------------------------------o||----|
A||o-10-----------------------------------o||----|
E||------0--0--0---------------------------||----|


      E  E  E  E  Q     E  E  E  E   4x
G||----------------------------------||----|
D||o--------------------------------o||----|
A||o-10-----------------------------o||----|
E||------0--0--0--8\----2--0--3--0---||----|


     E  E  Q    Q    E  E  E E E  E  E  E E E E  4x
G||----------------------------------------------||----|
D||o--------------------------------------------o||----|
A||o-------8----8----------8h9p8------------5---o||----|
E||--0--0------------0--0---------0--0--3-7---6--||----|


Duration Legend
---------------
W - whole; H - half; Q - quarter; E - 8th; S - 16th; T - 32nd; X - 64th; a - acciaccatura
+ - note tied to previous; . - note dotted; .. - note double dotted
Uncapitalized letters represent notes that are staccato (1/2 duration)
Irregular groupings are notated above the duration line
Duration letters will always appear directly above the note/fret number it represents the
duration for.  Duration letters with no fret number below them represent rests.  Multi-
bar rests are notated in the form Wxn, where n is the number of bars to rest for.  Low
melody durations appear below the staff

Misc Legend
-----------
 |  - bar
||  - double bar
||o - repeat start
o|| - repeat end
*|  - double bar (ending)
 :  - bar (freetime)
 $  - Segno
 &  - Coda
Tempo markers -  = BPM(8/16=s8/s16), where s8 = swing 8ths, s16 = swing 16ths

************************************

| h  Hammer-on
| p  Pull-off
| /  Slide up
| \  Slide down

************************************

            
            
Suggest correction
Creating personal tab
Creating personal tab
You can edit any tab online and save it as your Personal.

You can edit, replace or remove any tab part or add personal notes – all changes will be seen only by you.

Personal tabs can be accessed anytime from any device, even offline.
Learn more »
Give kudos to tab author, rate the tab!
1 2 3 4 5
comments
print report bad tab
1 comment total.
0 reply
dont_call_me_emo14 32 May 25, 2016 02:28 PM

heres the song
https://www.youtube.com/watch?v=Xc6PqEL0Qgc

guest
You may want to rate the tab now too:
select rating
Wanna post a correction for this tab? Suggest correction