Oops, an error
Loading. Please wait.

Zombies On Vacation - Frankenstein tab

25 views 1 this week
no commentswrite comment
1 2 3 4 5
3 more votes to show rating
add to favorites
×
Save as Personal and add changes to this tab that will be seen only by you. Learn more ›
×
You can save this tab as Personal to edit and correct it or add notes. All changes will be seen only by you. Learn more »
launch autoscroll
font size
0
reset
how to read this tab
guitar tuner
edit
Autoscroll
slow
fast
+/-
esc
set tempo
stop
Author
Difficulty
Frankenstein
by Zombies On Vacation
(It's also a great exercise for finger dexterity for beginners)


Play this riff when not singing
e |-------------------------------------|
B |-------------------------------------|
G |-------------------------------------|
D |-------------------------------------|
A |-----2------3----4----5--------------|
E |---------2-----3-----4-----5---------|

B5   F5   C5   G5   C#5   G#5   
D5   A5


Play this riff when there is singing:

e |-----------------------------------------------------------------|
B |-----------------------------------------------------------------|
G |-----------------------------------------------------------------|
D |-----------------------------------------------------------------|
A |-----5-----5-----------4---4-------------------------------------|
E |---------------------------------------4---4----------5---5------|


------------------------------------------------------------------------------


Start
e |-------------------------------------|
B |-------------------------------------|
G |-------------------------------------|
D |-------------------------------------|
A |-----2------3----4----5--------------|
E |---------2-----3-----4-----5---------|

B5   F5   C5   G5   C#5   G#5   
D5   A5


e |-------------------------------------------------------------------|
B |-------------------------------------------------------------------|
G |-------------------------------------------------------------------|
D |-------------------------------------------------------------------|
A |-----5-----5-----------4---4---------------------------------------|
E |---------------------------------------4---4----------5---5--------|
       There's a man on the loose named Frankenstein
       He's on the run, but             committed no crime
       He just looks different than you        and me
        So he's      ostracized         from           society.

e |-------------------------------------|
B |-------------------------------------|
G |-------------------------------------|
D |-------------------------------------|
A |-----2------3----4----5--------------|
E |---------2-----3-----4-----5---------|

e |-------------------------------------------------------------------|
B |-------------------------------------------------------------------|
G |-------------------------------------------------------------------|
D |-------------------------------------------------------------------|
A |-----5-----5-----------4---4---------------------------------------|
E |---------------------------------------4---4-------5—5-------------|
        Raised from the dirt and conceived on a slab
        Searching for the second chance he never had
        Assembled by a cracker jack limb by limb
        The forecast for his future looked pretty grim.


Play this riff when not singing
e |-------------------------------------|
B |-------------------------------------|
G |-------------------------------------|
D |-------------------------------------|
A |-----2------3----4----5--------------|
E |---------2-----3-----4-----5---------|


e |-------------------------------------------------------------------|
B |-------------------------------------------------------------------|
G |-------------------------------------------------------------------|
D |-------------------------------------------------------------------|
A |-----5-----5-----------4---4---------------------------------------|
E |---------------------------------------4---4-------5—5-------------|

  He was born from a mother and then placed in a hole
  Then they rebuilt him,   someone they could control.
   He still has             feelings, a         heart and      a brain.
  But they only see his colored skin and inflict on him pain.


e |-------------------------------------|
B |-------------------------------------|
G |-------------------------------------|
D |-------------------------------------|
A |-----2------3----4----5--------------|
E |---------2-----3-----4-----5---------|

e |-------------------------------------------------------------------|
B |-------------------------------------------------------------------|
G |-------------------------------------------------------------------|
D |-------------------------------------------------------------------|
A |-----5-----5-----------4---4---------------------------------------|
E |---------------------------------------4---4-------5—5-------------|
 It's hard to communicate when no one wants to hear
Rather than try to understand they live in hate and fear.
Frankenstein is not the beast he's made out to be
The true monster in the tale are the ones who won't let him be.

e |-------------------------------------|
B |-------------------------------------|
G |-------------------------------------|
D |-------------------------------------|
A |-----2------3----4----5--------------|
E |---------2-----3-----4-----5---------|


e |-------------------------------------------------------------------|
B |-------------------------------------------------------------------|
G |-------------------------------------------------------------------|
D |-------------------------------------------------------------------|
A |-----5-----5-----------4---4---------------------------------------|
E |---------------------------------------4---4-------5—5-------------|
        There's a man on the loose named Frankenstein
        He's on the run, but            committed no crime
        He just looks different than you        and me
        So he's      ostracized         from           society.

            
            
Suggest correction
Creating personal tab
Creating personal tab
You can edit any tab online and save it as your Personal.

You can edit, replace or remove any tab part or add personal notes – all changes will be seen only by you.

Personal tabs can be accessed anytime from any device, even offline.
Learn more »
Give kudos to tab author, rate the tab!
1 2 3 4 5
comments
print report bad tab
guest
You may want to rate the tab now too:
select rating
Wanna post a correction for this tab? Suggest correction