Oops, an error
Loading. Please wait.

Brian Marshall - My Dear Betrayer tab

127 views 3 this week
1 commentread comment
1 2 3 4 5
3 more votes to show rating
add to favorites
×
Save as Personal and add changes to this tab that will be seen only by you. Learn more ›
×
You can save this tab as Personal to edit and correct it or add notes. All changes will be seen only by you. Learn more »
launch autoscroll
font size
0
reset
how to read this tab
guitar tuner
edit
Autoscroll
slow
fast
+/-
esc
set tempo
stop
Author
                               MY DEAR BETRAYER
                          As recorded by Brian Marshall

Words and Music by Brian Marshall
Arranged by Brian Marshall
Transcribed by Brian Marshall

This was one of the very first songs I wrote. I have the song in MIDI format if anyone
is interested in hearing it. Just send me a message at ethereaisin@aol.com and I'll send
it to you.

          A5                   G5                   F5               A5(type 2)
     7 7 7 9 10 x          5 5 5 7 8 x          3 3 3 5 6 x          7 7 7 x x x

      G5(type 2)           F5(type 2)
      5 5 5 x x x          3 3 3 x x x

Gtr I (D A D G B E) - 'Nylon Acoustic'
Gtr II (D A D G B E) - 'Steel String Acoustic'
Gtr III (D A D G B E) - 'Rhythm Distortion'
Gtr IV (D A D G B E) - 'Lead Distortion'
Gtr V (D A D G B E) - 'Lead 2(Solo)'

   Intro
    Moderate Q=120 Remains the same throughout the entire song.
    A5                 G5             F5
   15/4
    Gtrs I, II
      H     E  H     E  H    E H    E  H    E H    E
||-----------------------------------------------------||
||o-^10----10-10----10-^8----8-8----8-^6----6-6----6\-o||
||--^-9-----9--9-----9-^7----7-7----7-^5----5-5----5\--||
||--^-7-----7--7-----7-^5----5-5----5-^3----3-3----3\--||
||o-^-7-----7--7-----7-^5----5-5----5-^3----3-3----3\-o||
||--^-7-----7--7-----7-^5----5-5----5-^3----3-3----3\--||


   Pre-Verse / Chorus
    $$                                To Dbl. Coda
    $
    A5                 G5             F5
    Gtr III
     H     E  H     E  H    E H    E  H    E H    E    4x
||-----------------------------------------------------||
||o-10----10-10----10--8----8-8----8--6----6-6----6\--o||
||---9-----9--9-----9--7----7-7----7--5----5-5----5\---||
||---7-----7--7-----7--5----5-5----5--3----3-3----3\---||
||o--7-----7--7-----7--5----5-5----5--3----3-3----3\--o||
||---7-----7--7-----7--5----5-5----5--3----3-3----3\---||
|
|   Gtr IV
|    H     E  H     E  H    E H    E  H    E H    E    4x
||---x-----x--x-----x\-x----x-x----x\-x----x-x----x\---||
||o-10----10-10----10\-8----8-8----8\-6----6-6----6\--o||
||---x-----x--x-----x\-x----x-x----x\-x----x-x----x\---||
||---x-----x--x-----x\-x----x-x----x\-x----x-x----x\---||
||o--7-----7--7-----7\-5----5-5----5\-3----3-3----3\--o||
||---7-----7--7-----7\-5----5-5----5\-3----3-3----3\---||


   Verses
                                            D.S.S.
    A5            N.G5            N.F5            N.C.
   12/4
    Gtrs III, IV
                  PM              PM              PM
    E E E E E E E E E E E E E E E E E E E E E E E E  4x
||---------------------------------------------------||
||o-------------------------------------------------o||
||---------------------------------------------------||
||--7-7-7-7-7-7-7Sx-5-5-5-5-5-5-5Sx-3-3-3-3-3-3-3Sx--||
||o-7-7-7-7-7-7-7Sx-5-5-5-5-5-5-5Sx-3-3-3-3-3-3-3Sx-o||
||--7-7-7-7-7-7-7S5-5-5-5-5-5-5-5S3-3-3-3-3-3-3-3S7--||


 Solo
  A5                       G5                             F5
  Gtrs III, IV
                         PM                             PM                      PM
    E  E  E  E  E  E  E  E  E  E  E  E        E   E  E  E  E  E  E  E  E  E  E  E
|---------------------------------------------------------------------------------|
|---------------------------------------------------------------------------------|
|---------------------------------------------------------------------------------|
|---7--7--7--7--7--7--7S=x--5--5--5--5--------5---5--5S=x--3--3--3--3--3--3--3S=x-|
|---7--7--7--7--7--7--7S=x--5--5--5--5--------5---5--5S=x--3--3--3--3--3--3--3S=x-|
|---7--7--7--7--7--7--7S=5--5--5--5--5--------5---5--5S=3--3--3--3--3--3--3--3S=7-|
|
| Gtr V
|                                    ~~~~~~~~~~~~
|   E  E  E  E  E  E  E  E  E  E  E  E       +E   E  E  E  E  E  E  E  E  E  E  E
|---------------------------------------------------------------------------------|
|-----10-15h16p15h16p15h16p15----15--------------16-15-13-13-15-15----------15-13-|
|-/11-------------------------15----17b18.5r(17)-------------------14-15-17-------|
|---------------------------------------------------------------------------------|
|---------------------------------------------------------------------------------|
|---------------------------------------------------------------------------------|


                                             D.S. al Dbl. Coda
  A5                            G5              F5
  Gtr V
                         ~~~
    E       +E   E  Q    Q    W               W               E
|---------------------------------------------------------------|
|-/15b16.5r(15)-------------------------------------------------|
|---------------17-14---17\-------------------------------------|
|---------------------------------------------------------------|
|---------------------------------------------------------------|
|---------------------------------------------------------------|
|
| Gtrs III, IV
|                             PM              PM              PM
|   E        E   E  E E  E  E E E E E E E E E E E E E E E E E E
|---------------------------------------------------------------|
|---------------------------------------------------------------|
|---------------------------------------------------------------|
|---7--------7---7--7-7--7--7Sx-5-5-5-5-5-5-5Sx-3-3-3-3-3-3-3Sx-|
|---7--------7---7--7-7--7--7Sx-5-5-5-5-5-5-5Sx-3-3-3-3-3-3-3Sx-|
|---7--------7---7--7-7--7--7S5-5-5-5-5-5-5-5S3-3-3-3-3-3-3-3S7-|


   Outro
    &&
    A5                     G5              F5
    Gtr III
                         PM              PM              PM
     E  E  E  E  E  E  E E E E E E E E E E E E E E E E E E  3x
||----------------------------------------------------------||
||o--------------------------------------------------------o||
||----------------------------------------------------------||
||---7--7--7--7--7--7--7Sx-5-5-5-5-5-5-5Sx-3-3-3-3-3-3-3Sx--||
||o--7--7--7--7--7--7--7Sx-5-5-5-5-5-5-5Sx-3-3-3-3-3-3-3Sx-o||
||---7--7--7--7--7--7--7S5-5-5-5-5-5-5-5S3-3-3-3-3-3-3-3S7--||
|
|   Gtr IV
|    E  E  E  E  E  E  E E E E E E E E E E E E E E E E E E  3x
||----------------------------------------------------------||
||o-10-10-10-10-10-10-10Sx-8-8-8-8-8-8-8Sx-6-6-6-6-6-6-6Sx-o||
||---9--9--9--9--9--9--9Sx-7-7-7-7-7-7-7Sx-5-5-5-5-5-5-5Sx--||
||---7--7--7--7--7--7--7Sx-5-5-5-5-5-5-5Sx-3-3-3-3-3-3-3Sx--||
||o--7--7--7--7--7--7--7Sx-5-5-5-5-5-5-5Sx-3-3-3-3-3-3-3Sx-o||
||---7--7--7--7--7--7--7S5-5-5-5-5-5-5-5S3-3-3-3-3-3-3-3S7--||

Lyrics:

Back then, so long ago
When we were young
We were as close as can be
And we swore we'd be friends until the end
Well were were...because this is the end for you

You've betrayed me one too many times
And now it's too late for sorry
I've heard that too many times before
I never thought it would would come to this, but it has
So now my dear friend, I bid you farewell
And I'LL SEE YOU IN HELL.

And now I stand here
With tears in my eyes and a gun in my hand
I've pulled the trigger that silenced you for good.
No longer do I have to deal with anymore or your heartless lies
May you Rot In Peace, My Dear Betrayer

You've betrayed me one too many times
And now it's too late for sorry
I've heard that too many times before
I never thought it would would come to this, but it has
So now my dear friend, I bid you farewell
And I'LL SEE YOU IN HELL.

            
            
Suggest correction
Creating personal tab
Creating personal tab
You can edit any tab online and save it as your Personal.

You can edit, replace or remove any tab part or add personal notes – all changes will be seen only by you.

Personal tabs can be accessed anytime from any device, even offline.
Learn more »
Give kudos to tab author, rate the tab!
1 2 3 4 5
comments
print report bad tab
1 comment total.
0 reply
ethereal sin 415 Aug 24, 2005 08:00 PM

Ok.. I changed up the solo a bit. All of the notes are closer together on the fretboard. I found it slightly easier to play it this way then the way I originally tabbed it.

|---------------------------------------------------------------------------------|
|--------15h16p15h16p15h16p15----15--------------16-15-------15-15----------15----|
|-----14----------------------15----17b18.5r(17)-------17-17-------14-15-17----17-|
|-/16-----------------------------------------------------------------------------|
|---------------------------------------------------------------------------------|
|---------------------------------------------------------------------------------|

guest
You may want to rate the tab now too:
select rating
Wanna post a correction for this tab? Suggest correction