Oops, an error
Loading. Please wait.

Boycott Me tab

634 views 15 this week
no commentswrite comment
1 2 3 4 5
2 more votes to show rating
add to favorites
×
Save as Personal and add changes to this tab that will be seen only by you. Learn more ›
×
You can save this tab as Personal to edit and correct it or add notes. All changes will be seen only by you. Learn more »
launch autoscroll
font size
0
reset
how to read this tab
guitar tuner
edit
Autoscroll
slow
fast
+/-
esc
set tempo
stop
Tabs by: THELOOT
capo 2nd Fret


(Chord Guide)

   D   B   A   G  

e|-2---2-------3---|
B|-3---3---2---3---|
G|-2---4---2---0---|
D|-0---4---2---0---|
A|-----2---0---2---|
E|-------------3---|


[Intro]

e|-----------------------------------7-----------------7-10-7----------------------|
B|-----------7-10-10-10-10-7-8-8-8-8---10-10-10-10-7-8--------10-10-10-7-----7-----|
G|-5-7-7-7-7-------------------------------------------------------------9-9---9-7-|  (2x)
D|---------------------------------------------------------------------------------|
A|---------------------------------------------------------------------------------|
E|---------------------------------------------------------------------------------|

e|----------------------------------------------------------------------|
B|-------------------------------------------8-7------------------------|
G|-5-7-7-7-7-9-7-7-5-7-7-7-7-9-7-7-5-7-7-7-7-7-7-7-7-5-7-7-7-7-7-7-7-7--|
D|-0-0-0-0-0-0-0-0-0-0-0-0-0-0-0-0-0-0-0-0-0-0-0-0-0-0-0-0-0-0-0-0-0-0--|
A|----------------------------------------------------------------------|
E|----------------------------------------------------------------------|


[Verse 1]

D
Listens to the fifens, they're marchin through the square, 
B                             A
stencil flags of insurrection dancin' through the air. 
D                                G          D
Read the rants of a Thomas Paine, of modern day. 
G             D               A            D
I have felt a spirit that has not yet gone away, hey! 
                                A                   D
Boycott me and boycott this and mute your childrens mouths 
          G                  D          A               D
when they sing along to this very song, spread word all around,


[Chorus]

    G    D              A             B     
Hey FOB, boycott me for i am standing up, 
    G              D                A                     D
i'd rather taste a rebels lure than drink blood from your cup, 
    G              D                A                     
i'd rather taste a rebels lure than drink blood from your cup!


   A D
e|---2-2-2-2-2-2-2-2-2-2-2-2-3-3-3-3-2-2-2-2-3-3-3-3-2-2-2-2-0-0-0-0-0-|
B|-2-3-3-3-3-3-3-3-3-3-3-3-3-3-3-3-3-3-3-3-3-3-3-3-3-3-3-3-3-3-3-3-3-3-|
G|-2-2-2-2-2-2-2-2-2-2-2-2-2-2-2-2-2-2-2-2-2-2-2-2-2-2-2-2-2-2-2-2-2-2-|
D|-2-0-0-0-0-0-0-0-0-0-0-0-0-0-0-0-0-0-0-0-0-0-0-0-0-0-0-0-0-0-0-0-0-0-|
A|-0-------------------------------------------------------------------|
E|---------------------------------------------------------------------|


[Bridge]

   B                D
e|------------------2-2-2-2-2-2-2-2--|
B|---3---3---3---3--3-3-3-3-3-3-3-3--|
G|---4---4---4---4--2-2-2-2-2-2-2-2--| 
D|---4---4---4---4--0-0-0-0-0-0-0-0--|
A|-2-------2-------------------------|
E|-----2-------2---------------------|(3x)


   G         D         A         D
e|----------------------------------|
B|-3-3-3p2p0------------------------|
G|-----------2-2-4p2p0--------------|
D|---------------------2-2-2h4p2-0--|  
A|----------------------------------|
E|----------------------------------|(2x)


************************************

| h  Hammer-on
| p  Pull-off

************************************

            
            
Suggest correction
Creating personal tab
Creating personal tab
You can edit any tab online and save it as your Personal.

You can edit, replace or remove any tab part or add personal notes – all changes will be seen only by you.

Personal tabs can be accessed anytime from any device, even offline.
Learn more »
Give kudos to tab author, rate the tab!
1 2 3 4 5
comments
print report bad tab
guest
You may want to rate the tab now too:
select rating
Wanna post a correction for this tab? Suggest correction