Oops, an error
Loading. Please wait.

Drinking Song From The Home Stretch tab

373 views 3 this week
no commentswrite comment
1 2 3 4 5
1 last vote to show rating
add to favorites
×
Save as Personal and add changes to this tab that will be seen only by you. Learn more ›
×
You can save this tab as Personal to edit and correct it or add notes. All changes will be seen only by you. Learn more »
launch autoscroll
font size
0
reset
how to read this tab
guitar tuner
edit
Autoscroll
slow
fast
+/-
esc
set tempo
stop
Author
Tabs by: THELOOT


(Chord Guide)

   C   Am  F   E+  D   G   C5   B   A#  A
e|---------1-------2---3-------------------|
B|-1---1---1---5---3---3-------------------|
G|-0---2---2---4---2---0-------------------|
D|-2---2---3---2---0---0---10---9---8---7--|
A|-3---0---3-----------2---10---9---8---7--|
E|---------1-----------3----8---7---6---5--|


[Intro]

           C        Am          F           E+ D
e|------------------------------------------------|
B|---------------1-----------1-----------1--5--3--|
G|------------------------------------------4--2--|
D|---0--------2-----------2-----3-----3-----2--0--| 
A|---------3--------2--0-----------3--------------|
E|-3---3------------------------------------------|(3x)
           PM-|       PM---|     

   F                     C  G
e|------------------------------|
B|------------------------------|
G|-----------------------0------|
D|-3---------------------2--0---|
A|-3--x-x-x-x---x-x-x-x--3--2---|
E|-1--x-x-x-x---x-x-x-x-----3---|


[Verse]

C                       Am              F       E+  D
It was somewhere in the suburbs of Philadelphia.
C                   Am             F                E+  D
A house was gutted, added onto six times its weight.
C                Am        F           E+  D 
About a week to go until the move-in date,
    F                                  G
And everybody runnin' in a six-day race.
C                            Am           F                  E+  D
There was bangin', there was buzzin' everybody on their knees.
C           Am         F            E+  D
"Runnin' behind," everyone can agree.
C                Am                 F                  E+  D
Yet Four O'Clock arrive and someone brought back a case,
F                                   C    G
And the power went out in the whole damn place.


[Chorus]


F                           C
Property is theft until the thieves are away.
      F                            C
If we did this in a month, we'd be arrested and detained
    F                G                 C5     B A#  A
For draggin' all our brains beyond the barbed-wire  chain
    D           G       C
And drinkin' on private land.


[Bridge]


     F                        C
Well, toss the empties in the garden.
    F
The scapers'll scrape 'em out when they come back to dig in,
G                 G                   G
Maybe leave a cap beneath the root as proof that we exist.


[Solo]

e|-------------------------------------8--5--8--5--8--5--8--5--3--5--3--5--3-|
B|-----0-1-1-0-----------1---1-3-----1-8--5--8--5--8--5--8--5--3--5--3--5--3-|
G|-0-2---------2---2-0-2---2-----0h2-----------------------------------------|
D|---------------------------------------------------------------------------|
A|---------------------------------------------------------------------------|
E|---------------------------------------------------------------------------|

e|-----5-----5-------------------------------------------------------------------|
B|-----5-----5-------------------------------------------------------------------|
G|-5h7---5h7---7-5-------5-7b-5-7-7-5/-14-14-14-14-14-14-14-12-12-12-12-12-12-12-|
D|-----------------7-5-7---------------14-14-14-14-14-14-14-12-12-12-12-12-12-12-|
A|-------------------------------------12-12-12-12-12-12-12-10-10-10-10-10-10-10-|
E|-------------------------------------------------------------------------------|


************************************

| x  Dead note
| h  Hammer-on
| b  Bend
| /  Slide up

************************************

            
            
Suggest correction
Creating personal tab
Creating personal tab
You can edit any tab online and save it as your Personal.

You can edit, replace or remove any tab part or add personal notes – all changes will be seen only by you.

Personal tabs can be accessed anytime from any device, even offline.
Learn more »
Give kudos to tab author, rate the tab!
1 2 3 4 5
comments
print report bad tab
guest
You may want to rate the tab now too:
select rating
Wanna post a correction for this tab? Suggest correction