Oops, an error
Loading. Please wait.

Nomads Revolt tab

226 views 1 this week
no commentswrite comment
1 2 3 4 5
3 more votes to show rating
add to favorites
×
Save as Personal and add changes to this tab that will be seen only by you. Learn more ›
×
You can save this tab as Personal to edit and correct it or add notes. All changes will be seen only by you. Learn more »
launch autoscroll
font size
0
reset
how to read this tab
guitar tuner
edit
Autoscroll
slow
fast
+/-
esc
set tempo
stop
Tabs By: THELOOT
capo 3rd fret


(Chord Key)

   D   F#  Bm  G   A   Em  G#  C#
e|-2---2---2---3-------0---4------|
B|-3---2---3---3---2---0---4---6--|
G|-2---3---4---4---2---0---5---6--|
D|-0---4---4---5---2---2---6---6--|
A|-----4---2---5---0---2---6---4--|
E|-----2-------3-------0---4------|



[Intro]

D  F#  B  G (6x)
A


   D             Bm    A
e|---------------------------|
B|-3-3---------3-------------|
G|-2-2---------2-------------| (2x)
D|-4-4-2p0-2p0---0-0-0-2-2-2-|
A|---------------2-2-2-0-0-0-|
E|---------------------------|



[Verse]


D     Bm            A            D
We go down to throw rocks at the river
       Bm     A
Curses at the parade
G         Bm           A            G
We're the stone in the gears of the clockwork
       A
Try to keep us from acting our age.


[Chorus]

D    F#     Bm       G
            Kill off Columbus
D    F#     Bm       G     
        And turn the world 
D             F#       Bm         G        D     D
around, After all, The nomads are settlin' down.


[Bridge]

e|-2-2-2-2-2-2-2-2-2-2-2-3-3-3-0-0-0-2-2--|
B|-3-3-3-3-3-3-3-3-3-3-3-3-3-3-3-3-3-3-3--|
G|-2-2-2-2-2-2-2-2-2-2-2-2-2-2-2-2-2-2-2--|
D|-0-0-0-0-0-0-0-0-0-0-0-0-0-0-0-0-0-0-0--|
A|----------------------------------------|
E|----------------------------------------|


G               Bm
But way, Not to so-and-so
          D     A                 G           Bm    A
Said he'd never change, Said he'd never grow
G                 Bm
He'd stay, Always on a roll
      D        A             G             Bm   A     
Run beside the train, To the mossy stones.
            A
Now there's more hope than ever
         G
And it's all fallin' down
        Em         F#          G
And the rebels are runnin' for mayor

In your hometown.


[Solo]

e|------------------------------------------------------------------------------------|
B|---------------------3---------------------3-----------------------------------3-3--|
G|-------------------2-2---------------------2-----------------------------------2-2--|
D|-0h2-4-4-2-4-2-2h4-----0h2-4-4-2-4-2-2h4p0---0h2-4-4-2-4-2-2-0-0---------------0-0--|
A|-----------------------------------------------------------------4-0-2h0-2h0--------|
E|-----------------------------------------------------------------------------2------|

e|-------------------------2-----------------------------------2-2-2-2-2-5/--------------------|
B|---------------------3-5---5-3-5-5-5-5-5-5-5-3-3-3-3-5-5-5-5-----------5/--------------------|
G|---------2-4-2-4-2-4-------------------------------------------------------------------------|
D|-0h2-4-4---------------------------------------------------------------------0-2-4-2-0-----0-|
A|--------------------------------------------------------------------------/2-----------0-4---|
E|---------------------------------------------------------------------------------------------|


[Outro]


Em   G#   C#       A
          Kill off Columbus
Em   G#   C#       A
      And turn the world 
Em            G#       C#         A        Em
around, After all, The nomads are settlin' down.



Em, G#...C#, Bm, A, Bm - (4x)
Em


************************************

| h  Hammer-on
| p  Pull-off
| /  Slide up

************************************

            
            
Suggest correction
Creating personal tab
Creating personal tab
You can edit any tab online and save it as your Personal.

You can edit, replace or remove any tab part or add personal notes – all changes will be seen only by you.

Personal tabs can be accessed anytime from any device, even offline.
Learn more »
Give kudos to tab author, rate the tab!
1 2 3 4 5
comments
print report bad tab
guest
You may want to rate the tab now too:
select rating
Wanna post a correction for this tab? Suggest correction