Oops, an error
Loading. Please wait.

Tell Me A Story tab

4,523 views 3 this week
3 commentsread comments
1 2 3 4 5
x 5
add to favorites
×
Save as Personal and add changes to this tab that will be seen only by you. Learn more ›
×
You can save this tab as Personal to edit and correct it or add notes. All changes will be seen only by you. Learn more »
launch autoscroll
font size
0
reset
how to read this tab
guitar tuner
edit
Autoscroll
slow
fast
+/-
esc
set tempo
stop
-------------------------------------------------------------------------------
                               Tell Me A Story - Mischief Brew
-------------------------------------------------------------------------------
Tabbed by: StairwaytoHeavn
Email: n0cturneshad0w@aol.com



Theres two guitars in this one, an acoustic playing open chords, and an electric playing 
power chords, though they always play the same chord. It's really easy to tell when one 
is playing and when it isn't so I guess just listen to the song for that.

Chords:

           Acoustic                                           Electric

   D   Dmaj7  D5    F#     G    Em   Dsus4   D'  Dsus2     D    F#     G    Em
e-(2)-|-----|-----|--2--|--3--|--0--|--3--|--5--|--0--|   -----|-----|-----|-----|
B--3--|--2--|--x--|--2--|--3--|--0--|--3--|--3--|--3--|   -----|-----|-----|-----|
G--2--|--2--|--2--|--3--|--4--|--0--|--2--|--2--|--2--|   --7--|-----|-----|-----|
D--0--|--0--|--0--|--4--|--5--|--2--|--0--|--0--|--0--|   --7--|--4--|--5--|--2--|
A--0--|--0--|--0--|--4--|--5--|--2--|-----|-----|-----|   --5--|--4--|--5--|--2--|
E-----|-----|-----|--2--|--3--|--0--|-----|-----|-----|   -----|--2--|--3--|--0--| 

Intro: D Dmaj7 D5


Electric:
e---------------------|--------------------|
B---------------------|--------------------|
G---------------------|--------------------|
D---------2/3-5-3-2-3-|----------2/3-3-2-0-|
A---------------------|--------------------|
E---------------------|--------------------|


D                                 F#
Tell me a story, settle the cards. 
D                                   F#
Give me a cause for the foreign wars. 
Wrap me up in our flag, 
and let the bombs fall where they may. 
Tell me a tale, make the puzzle whole. 
Give it to the pilgrim without a soul. 
Sell it to the miner who can't afford his coal 
and may the history factory never close. 
                      __
                        \
G D  (F# G F# Em F#)x2   |x2
                      __/

(Same as first verse)
You can build an army of this rabble yet. 
You can make a nation from the ashes of the dead. Tell them a story: 
god blood and glory, 
brew up an enemy: 
they're comin' to steal your bread. 
And let the bombs fall where they may 
on faces I don't see with names I cannot say. 
For I trust the storyteller with my vote. 
I, pilgrim was sold a golden soul,
sold a soul, sold his soul. 
                      __
                        \
G D  (F# G F# Em F#)x2   |x2
                      __/


D Dsus4 Dsus4 D'

D
The first thing I remember? 
Dsus4
Waking up and seeing you there. 
Dsus4                        D           Dsus2
Comfort like a fire, like an answer to a prayer. 
Like a beacon in the blackness, 
solace from the racket. 
Take your shears to the briars. Kill the chaos, make it clear. 

(Same chord progression, but with electric playing the same chords)
Tell me why the buildings fall and everybody dies.
I have so many questions, just tell me where to sign... 
and I'll take up arms
and lock all the doors 
and I'll tell them a story 'bout the good guys 
          D(Palm muted)
of the war, 
of the war. 

[D Dsus4 Dsus4 D] x2


   Gmin7     Dmin
e---10----|---10----|
B---11----|---10----|
G---10----|---10----|
D---12----|---12----|
A---------|---------|
E---------|---------|

Gmin7    Dmin   Gmin7      Dmin
Tell me a story to help me slip away. 
Gmin7          Dmin
I drank up an enemy. 
Gmin7                        Dmin
So let the bombs rain from our parade 
and fall where they may.
                      __
                        \
G D  (F# G F# Em F#)x2   |x2
                      __/
   
Outro:
                x2              x2                     x2  __
e--------------||--------------||---------------------||     \
B--3-333-4-3-3-||-6-666-7-6-6--||-10-101010-11-10--10-||      \
G-----------2--||----------7---||----------------10---||       | x2
D--------------||--------------||---------------------||       |
A--------------||--------------||---------------------||      / 
E--------------||--------------||---------------------||   __/

            
            
Suggest correction
Creating personal tab
Creating personal tab
You can edit any tab online and save it as your Personal.

You can edit, replace or remove any tab part or add personal notes – all changes will be seen only by you.

Personal tabs can be accessed anytime from any device, even offline.
Learn more »
comments
print report bad tab
3 comments total.
-2 reply
PunkForLife55 10 Mar 15, 2010 11:54 PM

hard to understand

0 reply
Piesintheface 10 May 19, 2010 06:40 AM

why is it hard to understand? 5 stars from me

0 reply
sydbaritone 219 May 02, 2012 09:36 AM

Bitchin' awesome tab. Thank you. Learned two new chords today

guest
You may want to rate the tab now too:
select rating
Wanna post a correction for this tab? Suggest correction