Oops, an error
Loading. Please wait.

Ten Thousand Fleas bass

1,856 views 3 this week
1 commentread comment
1 2 3 4 5
2 more votes to show rating
add to favorites
×
Save as Personal and add changes to this tab that will be seen only by you. Learn more ›
×
You can save this tab as Personal to edit and correct it or add notes. All changes will be seen only by you. Learn more »
launch autoscroll
font size
0
reset
guitar tuner
edit
Autoscroll
slow
fast
+/-
esc
set tempo
stop
Michief Brew - Ten Thousand Fleas


---10--9----8----10-9---8-|
-8-------10----8-----10---|
--------------------------|
--------------------------|

---10--9----8----10-9---8-|
-8-------10----8-----10---|
--------------------------|
--------------------------|

--------------------------|
--------------------------|
---10--9----8----10-9---8-|
-8-------10----8-----10---|

--------------------------|
--------------------------|
---10--9----8----10-9---8-|
-8-------10----8-----10---|

the timing is everything on this song.  i would like to drink a mischief brew or 3 one day.

            
            
Suggest correction
Creating personal tab
Creating personal tab
You can edit any tab online and save it as your Personal.

You can edit, replace or remove any tab part or add personal notes – all changes will be seen only by you.

Personal tabs can be accessed anytime from any device, even offline.
Learn more »
Give kudos to tab author, rate the tab!
1 2 3 4 5
comments
print report bad tab
1 comment total.
0 reply
sydbaritone 219 May 02, 2012 09:41 AM

Sounds good to me. stumbled across this tab, neat song to learn. thanks

guest
You may want to rate the tab now too:
select rating
Wanna post a correction for this tab? Suggest correction