Oops, an error
Loading. Please wait.

The Imperial Ambition tab

version 1
version 1

Whole song

Interactive

380 views 1 this week
no commentswrite comment
1 2 3 4 5
3 more votes to show rating
add to favorites
×
Save as Personal and add changes to this tab that will be seen only by you. Learn more ›
×
You can save this tab as Personal to edit and correct it or add notes. All changes will be seen only by you. Learn more »
launch autoscroll
font size
0
reset
how to read this tab
guitar tuner
edit
Autoscroll
slow
fast
+/-
esc
set tempo
stop
Author
                            TABULATURE LEGEND:
                   " - tremolo             h - hammer on           
                   ~ - vibrato             \ - slide down
                   p - pull off            / - slide down
                  tr - trill               ^ - pinch harmonics     
                   = - sustained note      b - bend string         
                p.m. - palm muting         t - tapping
                           <> - natural harmonic

TUNING: C# [C#,F#,B,e,g#,c#]

[Intro]
|------------------------------------------------|-
|------------------------------------------------|-
|------------------------------------------------|-
|------------------------------------6--7--6-----|-
|-------7"----7"-8"-7"-3"------4"----4--5--4--4--|-
|-0"...----0"-------------2"..----2"----------2--|-
|                                                |
|------------------------------------------------|-
|------------------------------------------------|-
|------------------------------------------------|-
|----------------------5-------------6--7--6-----|-
|-2--------------------3--4=========-4--5--4--4--|-
|-0-----------------------2=========----------2--|-

-|---------------------------------------------|
-|---------------------------------------------|
-|---------------------------------------------|
-|-------------------------------6--7----6--9--|
-|-------7"----7"-8"-7"-3"-4"...-4--5----4--7--|
-|-0"...----0"---------------------------------|
 |                                             |
-|---------------------------------------------|
-|---------------------------------------------|
-|---------------------------------------------|
-|-------------------------------6--7----6--9--|
-|-------7"----7"-8"-7"-3"-4"...-4--5----4--7--|
-|-0"...----0"---------------------------------|

[Riff 1]
|------------------------------------------------|-
|------------------------------------------------|-
|------------------------------------------------|-
|------------------------------------6--7--6-----|-
|-------7"----7"-8"-7"-3"------4"----4--5--4--4--|-
|-0"...----0"-------------2"..----2"----------2--|-

-|---------------------------------------------|
-|---------------------------------------------|
-|---------------------------------------------|
-|-------------------------------6--7----6--9--|
-|-------7"----7"-8"-7"-3"-4"...-4--5----4--7--|
-|-0"...----0"---------------------------------|

[Riff 2]
|----------------------------|-----------------------------|-
|----------------------------|-----------------------------|-
|----------------------------|-----------------------------|-
|----------------------------|-----------------------------|-
|-------5-7-5-3-3--3-3-3-3-3-|-7-7--7-5-7-5-3-3--3-3-3-3-3-|-
|-5"...-3-5-3-1-1--1-1-1-1-1-|-5-5--5-3-5-3-1-1--1-1-1-1-1-|-

-|----------------------------|------------------|
-|----------------------------|------------------|
-|----------------------------|------------------|
-|----------------------------|------------------|
-|-------5-7-5-3-3--3-3-3-3-3-|-2"....-3"..-2"..-|
-|-5"...-3-5-3-1-1--1-1-1-1-1-|------------------|

[Riff 3]
|----------------------------|-----------------------------|-
|----------------------------|-----------------------------|-
|----------------------------|-----------------------------|-
|----------------------------|-----------------------------|-
|-7-7--5-7-5-3-3-3-3-3-3-3-3-|-------5-7-5-3-3-3-3-3-3-3-3-|-
|-5-5--3-5-3-1-1-1-1-1-1-1-1-|-5"...-3-5-3-1-1-1-1-1-1-1-1-|-
|                            |                             |
|----------------------------|-----------------------------|-
|----------------------------|-----------------------------|-
|----------------------------|-----------------------------|-
|----------------------------|-----------------------------|-
|-7-7--5-7-5-3-3-3-3-3-3-3-3-|-------5-7-5-3-3-3-3-3-3-3-3-|-
|-5-5--3-5-3-1-1-1-1-1-1-1-1-|-5"...-3-5-3-1-1-1-1-1-1-1-1-|-

-|----------------------------|------------------|
-|----------------------------|------------------|
-|----------------------------|------------------|
-|----------------------------|------------------|
-|-7-7--5-7-5-3-3-3-3-3-3-3-3-|-2"....-3"..-2"..-|
-|-5-5--3-5-3-1-1-1-1-1-1-1-1-|------------------|
 |                            |                  |
-|----------------------------|------------------|
-|----------------------------|------------------|
-|----------------------------|------------------|
-|----------------------------|------------------|
-|-7-7--5-7-5-3-3-3-3-3-3-3-3-|-6"....-7"..-6"..-|
-|-5-5--3-5-3-1-1-1-1-1-1-1-1-|------------------|

[Riff 4a (x2)]
||--------------------------------------|--------------------------------||
||o-------------------------------------|-------------------------------o||
||--------------------------------------|--------------------------------||
||--9-9--9-10-9-7-10-10--10-10-10-10-10-|-9-9--9-10-9-7------------------||
||o-7-7--7--8-7-5--8--8---8--8--8--8--8-|-7-7--7--8-7-5-3"...-5"..-3"..-o||
||--------------------------------------|--------------------------------||

[Riff 4b (x2)]
||---------------------------------------|--------------------------------||
||o--------------------------------------|-------------------------------o|
||---------------------------------------|--------------------------------||
||-----------------10-10--10-10-10-10-10-|----------------5-5--5-7-7-5-5--||
||o-7"...-8"-7"-5"--8--8---8--8--8--8--8-|-7"...-8"-7"-5"-3-3--3-5-5-5-3-o||
||---------------------------------------|--------------------------------||

[Riff 5]
|-----------------------------|----------------------|-
|-----------------------------|----------------------|-
|-----------------------------|----------------------|-
|-----------------------------|--------9-9-9-10-9-10-|-
|-2-2--2-2-2--2-3-3--3-3-3--3-|-8"....-7-7-7--8-7--8-|-
|-0-0--0-0-0--0-1-1--1-1-1--1-|----------------------|-

-|-----------------------------|----------------------|
-|-----------------------------|----------------------|
-|-----------------------------|----------------------|
-|-----------------------------|--------9-9-9-10-9-10-|
-|-2-2--2-2-2--2-3-3--3-3-3--3-|-8"....-7-7-7--8-7--8-|
-|-0-0--0-0-0--0-1-1--1-1-1--1-|----------------------|
   . .  . . .  . . .  . . .  .

[Riff 6]
|--------------------------------------|--------------------------------------|
|--------------------------------------|--------------------------------------|
|--------------------------------------|--------------------------------------|
|--------------------------------------|--------------------------------------|
|---------------8"....-7"..-8"..-7"...-|---------------8"....-7"..-8"..-7"...-|
|-0"....-1"....------------------------|-0"....-1"....------------------------|
|                                      |                                      |
|--------------------------------------|--------------------------------------|
|--------------------------------------|--------------------------------------|
|--------------------------------------|--------------------------------------|
|--------------------------------------|---------------7"....-9"..-10"--------|
|---------------8"....-7"..-8"..-7"...-|--------------------------------7"...-|
|-0"....-1"....------------------------|-0"....-1"....------------------------|

[Outro A]
|--------------------|
|--------------------|
|--------------------|
|-6=======-7===-6===-|
|-4=======-5===-4===-|
|-4=======-5===-4===-|

[RIFF 1 (x2)] [RIFF 2] [RIFF 3] [RIFF 4a (x2)]
 [RIFF 4b (x2)] [RIFF 5] [RIFF 6] [OUTRO A]
 
[Outro B]
|-----------------------------------|------------------------------|-
|-----------------------------------|------------------------------|-
|-----------------------------------|------------------------------|-
|-----9-9-9\-----9-9-9-10--10-10-10-|-----9-9-9------5----7--7-7-7-|-
|-----7-7-7\-----7-7-7--8---8--8--8-|-----7-7-7\-----3----5--5-5-5-|-
|-000--------000--------------------|-000--------000----0----------|-
| ...        ...                    | ...        ...    .          |
|-----------------------------------|------------------------------|-
|-----------------------------------|------------------------------|-
|-----------------------------------|------------------------------|-
|-----------------------------------|------------------------------|-
|-----------------------------------|-------------------13\.......-|-
|-----------------------------------|-------------------11\.......-|-

-|-----------------------------------|------------------------|
-|-----------------------------------|------------------------|
-|-----------------------------------|------------------------|
-|-----9-9-9\-----9-9-9-10--10-10-10-|-----9-9-9------5---7---|
-|-----7-7-7\-----7-7-7--8---8--8--8-|-----7-7-7\-----3---5---|
-|-000--------000--------------------|-000--------000-3---5---|
 | ...        ...                    | ...        ...         |
-|-----------------------------------|------------------------|
-|-----------------------------------|----------------8~--7~--|
-|-----------------------------------|------------------------|
-|-----9-9-9\-----9-9-9-10--10-10-10-|-----9-9-9------6~--4~--|
-|-----7-7-7\-----7-7-7--8---8--8--8-|-----7-7-7\-------------|
-|-000--------000--------------------|-000--------000---------|
   ...        ...                      ...        ...

[Riff 7 (x2)]
||----------------------------------|---------------------------------|-
||o---------------------------------|---------------------------------|-
||----------------------------------|---------------------------------|-
||--------------------------5---7-7-|---------------------------------|-
||o-2-5-4-2-5-4-2-2-2-5-4-2-3---5-5-|-2-5-4-2-5-4-2-2-2-2-2-2-2-2-2-2-|-
||--0-3-2-0-3-2-0-0-0-3-2-0---0-----|-0-3-2-0-3-2-0-0-0-0-0-0-0-0-0-0-|-
    . . . . . . . . . . . .   .       . . . . . . . . . . . . . . . .

-|---------------------------------|------------------------------------||
-|---------------------------------|-----------------------------------o||
-|---------------------------------|------------------------------------||
-|-------------------------5---7-7-|-9--9-9-9-9-10--10-10-10-9-10-9-10--||
-|-2-5-4-2-5-4-2-2-2-5-4-2-3---5-5-|-7--7-7-7-7--8---8--8--8-7--8-7--8-o||
-|-0-3-2-0-3-2-0-0-0-3-2-0---0-----|------------------------------------||
   . . . . . . . . . . . .   . 

[Riff 8]
|--------------------------------|--------------------------------|-
|--------------------------------|--------------------------------|-
|--------------------------------|--------------------------------|-
|-8\-----------------------------|-9\-----------------------------|-
|-6\-------------2-5-4-2-5-4-2-4-|-7\-------------2-5-4-2-7-5-4-5-|-
|----000-000-000-0-3-2-0-3-2-0-2-|----000-000-000-0-3-2-0-5-3-2-3-|-
     ... ... ... . . . . . . . .      ... ... ... . . . . . . . .

-|--------------------------------|---------------------------------|
-|--------------------------------|---------------------------------|
-|--------------------------------|---------------------------------|
-|-9\-----------------------------|---------------------------------|
-|-7\-------------2-5-4-2-5-4-2-4-|-7-7-7-7-7-7-7-7-8-8-8-8-7-8-7-8-|
-|----000-000-000-0-3-2-0-3-2-0-2-|-5-5-5-5-5-5-5-5-6-6-6-6-5-6-5-6-|
      ... ... ... . . . . . . . .

[Riff 9]
|--------------------------------|--------------------------------|-
|--------------------------------|--------------------------------|-
|--------------------------------|--------------------------------|-
|--------------------------------|--------------------------------|-
|-2--2-----------2-5-4-2-5-4-2-4-|-2--2-----------2-5-4-2-7-5-4-5-|-
|-0--0--00000000-0-3-2-0-3-2-0-2-|-0--0--00000000-0-3-2-0-5-3-2-3-|-
  .  .           . . . . . . . .   .  .           . . . . . . . .

-|--------------------------------|-----------------------------------------|
-|--------------------------------|-----------------------------------------|
-|--------------------------------|-----------------------------------------|
-|--------------------------------|---------------10-10-10-10-9-10-10-9-10--|
-|-2--2-----------2-5-4-2-5-4-2-4-|-2--2-----------8--8--8--8-7--8--8-7--8--|
-|-0--0--00000000-0-3-2-0-3-2-0-2-|-0--0--00000000-6--6--6--6-5--6--6-5--6--|
   .  .           . . . . . . . .   .  .           

[Ending]
|-----------*|
|-----------*|
|-2========-*|
|-2========-*|
|-2========-*|
|-0========-*|

            
            
Suggest correction
Creating personal tab
Creating personal tab
You can edit any tab online and save it as your Personal.

You can edit, replace or remove any tab part or add personal notes – all changes will be seen only by you.

Personal tabs can be accessed anytime from any device, even offline.
Learn more »
Give kudos to tab author, rate the tab!
1 2 3 4 5
comments
print report bad tab
guest
You may want to rate the tab now too:
select rating
Wanna post a correction for this tab? Suggest correction