Oops, an error
Loading. Please wait.

Descending Angel bass

version 2
version 2

Whole song

Interactive

by Misfits
4,794 views 1 this week
1 commentread comment
1 2 3 4 5
x 7
add to favorites
×
Save as Personal and add changes to this tab that will be seen only by you. Learn more ›
×
You can save this tab as Personal to edit and correct it or add notes. All changes will be seen only by you. Learn more »
launch autoscroll
font size
0
reset
guitar tuner
edit
Autoscroll
slow
fast
+/-
esc
set tempo
stop
Author
Intro
                                           x2
G]---------------------------------------|
D]---------------------------------------|
A]----------4-4-4-4-6--------------------|
E]-6-6-6-6-6---------4-4-4-4-4-1-1-1-1-1-|

Verse
                                          x3
G]---------------------------------------|
D]---------------------------------------|
A]----------4-4-4-4-6--------------------|
E]-6-6-6-6-6---------4-4-4-4-4-4-4-4-4-4-|

Pre Choras

G]-------------------------------|
D]-------------------------------|
A]----------4-4-4-4-6------------|
E]-6-6-6-6-6---------4-4-4-4-4-1-|

Choras

G]---------------------------------------|
D]---------------------------------------|
A]----------4-4-4-4-4--------------------|
E]-6-6-6-6-6---------4-4-4-4-4-1-1-1-1-1-|

G]-------------------------------|
D]-------------------------------|
A]----------4-4-4-4-6------------|
E]-6-6-6-6-6---------4-4-4-4-4-1-|


G]---------------------------------------|
D]---------------------------------------|
A]----------4-4-4-4-4--------------------|
E]-6-6-6-6-6---------4-4-4-4-4-1-1-1-1-1-|

G]-------------------------------------------------|
D]-------------------------------------------------|
A]----------4-4-4-4-4------------------------------|
E]-6-6-6-6-6---------4-4-4-4-4-1-1-1-1-1-1-1-1-1-1-|

Verse
                                          x3
G]---------------------------------------|
D]---------------------------------------|
A]----------4-4-4-4-6--------------------|
E]-6-6-6-6-6---------4-4-4-4-4-4-4-4-4-4-|
Pre Choras

G]-------------------------------|
D]-------------------------------|
A]----------4-4-4-4-6------------|
E]-6-6-6-6-6---------4-4-4-4-4-1-|


Choras

G]---------------------------------------|
D]---------------------------------------|
A]----------4-4-4-4-4--------------------|
E]-6-6-6-6-6---------4-4-4-4-4-1-1-1-1-1-|

G]-------------------------------|
D]-------------------------------|
A]----------4-4-4-4-6------------|
E]-6-6-6-6-6---------4-4-4-4-4-1-|


G]---------------------------------------|
D]---------------------------------------|
A]----------4-4-4-4-4--------------------|
E]-6-6-6-6-6---------4-4-4-4-4-1-1-1-1-1-|

G]-------------------------------------------------|
D]-------------------------------------------------|
A]----------4-4-4-4-4------------------------------|
E]-6-6-6-6-6---------4-4-4-4-4-1-1-1-1-1-1-1-1-1-1-|

Solo

G]-----------------------------------------------------------------|
D]-----------------------------------------------------------------|
A]----------4-4-4-4-6------------4-4-4-4-4-4-4-4-4-6-6-6-6-6-6-6-6-|
E]-6-6-6-6-6---------4-4-4-4-4-4-----------------------------------|

---------------------------------|
---------------------------------|
-8-8-8-8-8-8-8-8-8-8-8-8-8-8-8-8-|
---------------------------------|

G]-------------------------------------------------------------------------------|
D]-------------------------------------------------------------------------------|
A]----------4-4-4-4-6------------------------------------------------------------|
E]-6-6-6-6-6---------4-4-4-4-4-4-4-4-4-4-9-9-9-9-9-11-11-11-11-11-13-13-13-13-13-|

Choras

G]---------------------------------------|
D]---------------------------------------|
A]----------4-4-4-4-4--------------------|
E]-6-6-6-6-6---------4-4-4-4-4-1-1-1-1-1-|

G]-------------------------------|
D]-------------------------------|
A]----------4-4-4-4-6------------|
E]-6-6-6-6-6---------4-4-4-4-4-1-|

                                                    x2 Choras
G]---------------------------------------|
D]---------------------------------------|
A]----------4-4-4-4-4--------------------|
E]-6-6-6-6-6---------4-4-4-4-4-1-1-1-1-1-|

G]-------------------------------------------------|
D]-------------------------------------------------|
A]----------4-4-4-4-4------------------------------|
E]-6-6-6-6-6---------4-4-4-4-4-1-1-1-1-1-1-1-1-1-1-|

FINISH

            
            
Suggest correction
Creating personal tab
Creating personal tab
You can edit any tab online and save it as your Personal.

You can edit, replace or remove any tab part or add personal notes – all changes will be seen only by you.

Personal tabs can be accessed anytime from any device, even offline.
Learn more »
comments
print report bad tab
1 comment total.
0 reply
lukas.hill.549 10 Jul 19, 2014 04:25 PM

Lack of accuracy. Tab incomplete.

guest
You may want to rate the tab now too:
select rating
Wanna post a correction for this tab? Suggest correction