Oops, an error
Loading. Please wait.

Descending Angel bass

version 1
version 1

Whole song

Interactive

by Misfits
7,511 views 6 this week
2 commentsread comments
1 2 3 4 5
x 3
add to favorites
×
Save as Personal and add changes to this tab that will be seen only by you. Learn more ›
×
You can save this tab as Personal to edit and correct it or add notes. All changes will be seen only by you. Learn more »
launch autoscroll
font size
0
reset
guitar tuner
edit
Autoscroll
slow
fast
+/-
esc
set tempo
stop
misfits "descending angel"

Tabbed by Chris

I tabbed the guitar riff.  this bass riff is exactly the same just not 
in powerchords.  this is a very easy song.  if the tab is wrong let me 
know at address below

Slipknot18374@aol.com

standard tunning

riff 1
------------------------------------------------------------
------------------------------------------------------------
------------------------------------------------------------
-7--7-7-7-7---10-10--10-10-10---5--5-5-5-5--2-2-2-2-2-2-2-2-

riff 2
-------------------------------------------
-------------------------------------------
-------------------------------------------
-7--7-7-7-7---10-10--10-10-10---5--5-5-5-5-

riff 1 x2
pause
riff 1 x4
pause
riff 1
riff 2
pause
riff 1 x2
pause
riff 1 x4
pause
riff 1
riff 2
pause
riff 1 x6
pause
riff 1
riff 2
pause
riff 1 x6

            
            
Suggest correction
Creating personal tab
Creating personal tab
You can edit any tab online and save it as your Personal.

You can edit, replace or remove any tab part or add personal notes – all changes will be seen only by you.

Personal tabs can be accessed anytime from any device, even offline.
Learn more »
Give kudos to tab author, rate the tab!
1 2 3 4 5
comments
print report bad tab
2 comments total.
0 reply
Debaser101 123 Jul 06, 2007 02:36 PM

Seems pretty good. Could be a bit easier to read, but I think it's correct. 4 stars!

0 reply
Debaser101 123 Jul 07, 2007 02:36 PM

But it's easier as

riff 1
------------------------------------------------------------
------------0---0--0--0--0----------------------------------
-2--2-2-2-2------------------0---0-0-0-0--------------------
-----------------------------------------2-2-2-2-2-2-2-2----

riff 2
-----------------------------------------
------------0---0--0--0--0---------------
-2--2-2-2-2------------------0---0-0-0-0-
-----------------------------------------

guest
Wanna post a correction for this tab? Suggest correction