Oops, an error
Loading. Please wait.

Earht Ad album tab

by Misfits
5,448 views 3 this week
no commentswrite comment
1 2 3 4 5
x 4
add to favorites
×
Save as Personal and add changes to this tab that will be seen only by you. Learn more ›
×
You can save this tab as Personal to edit and correct it or add notes. All changes will be seen only by you. Learn more »
launch autoscroll
font size
0
reset
how to read this tab
guitar tuner
edit
Autoscroll
slow
fast
+/-
esc
set tempo
stop
Author
Difficulty
intermediate
Misfits Earth A.D.
Other Peoples Tabs


Earth AD

1234!
E|-------------------------|
B|-------------------------|
G|-------------------------|
D|-------------------------|
A|-3--2--5--4—-3--2--5--4--|
E|-------------------------|

E|------------------------------------------------|
B|------------------------------------------------|
G|-5---4---6---5---4---6---5---4---6---5—--4---6--|
D|-5---4---6---5---4---6---5---4---6---5---4---6--|
A|-3---2---4---3---2---4---3---2---4---3---2---4--|
E|------------------------------------------------|

E|-----------------------|
B|-----------------------|
G|-----5---7-------5---7-|
D|-2---5---7---2---5---7-|
A|-2---3---5---2---3---5-|
E|-0-----------0---------|

E|---------------------------|
B|---------------------------|
G|-5---4---6---5---4---6-----|
D|-5---4---6---5---4---6-----|
A|-3---2---4---3---2---4-----|
E|---------------------------|

E|-----------------------|
B|-----------------------|
G|-----5---7-------5---7-|
D|-2---5---7---2---5---7-|
A|-2---3---5---2---3---5-|
E|-0-----------0---------|

E|--------------------------------------------------|
B|--------------------------------------------------|
G|-4---5---4-----------4---5---4--------------------|
D|-4---5---4---33-33---4---5---4---3-33-3-33-3-33-3-|
A|-2---3---2---33-33---2---3---2---3-33-3-33-3-33-3-|
E|-------------11-11---------------1-11-1-11-1-11-1-|

E|------------------------------------------------|
B|------------------------------------------------|
G|-5---4---6---5---4---6---5---4---6---5—--4---6--|
D|-5---4---6---5---4---6---5---4---6---5---4---6--|
A|-3---2---4---3---2---4---3---2---4---3---2---4--|
E|------------------------------------------------|

E|-----------------------|
B|-----------------------|
G|-----5---7-------5---7-|
D|-2---5---7---2---5---7-|
A|-2---3---5---2---3---5-|
E|-0-----------0---------|

E|---------------------------|
B|---------------------------|
G|-5---4---6---5---4---6-----|
D|-5---4---6---5---4---6-----|
A|-3---2---4---3---2---4-----|
E|---------------------------|

E|-----------------------|
B|-----------------------|
G|-----5---7-------5---7-|
D|-2---5---7---2---5---7-|
A|-2---3---5---2---3---5-|
E|-0-----------0---------|

E|--------------------------------------------------|
B|--------------------------------------------------|
G|-4---5---4-----------4---5---4--------------------|
D|-4---5---4---33-33---4---5---4---3-33-3-33-3-33-3-|
A|-2---3---2---33-33---2---3---2---3-33-3-33-3-33-3-|
E|-------------11-11---------------1-11-1-11-1-11-1-|

E|--------------------------------------------------|
B|--------------------------------------------------|
G|-4---5---4-----------4---5---4--------------------|
D|-4---5---4---33-33---4---5---4---3-33-3-33-3-33-3-|
A|-2---3---2---33-33---2---3---2---3-33-3-33-3-33-3-|
E|-------------11-11---------------1-11-1-11-1-11-1-|

Queen Wasp

Riff 1:    A               B
E----------------------|-------------|
B----------------------|-------------|
G----------------------|-------------|
D-22222-444-666--------|-2-4-6-------|
A-22222-222-444--------|-2-2-4-------|
E-00000-------- x's 4--|-0---- x's 4-|

Riff 2:
E---------------|
B---------------|
G---------------|
D----44-6 x's 2-|
A-3--22-4-------|
E-1-------------|

Riff 1

Riff 2 x's 2

Riff 3:
E-----------------------|
B-----------------------|
G-----------------------|
D-6---------44-6--------|
A-4-4444444-22-4  x's 6-|
E-----------------------|
pm  .......

Riff 2 x's 2

Riff 1: A x's 8 , B

Devilock

Riff 1:
E-----------------|
B-----------------|
G-----------------|
D-2-5-2-5-2--5----|
A-2-3-2-3-2--3--5-|
E-0---0---0-----3-|  x's 3

Riff 2:
E------------------|
B------------------|
G------------------|
D-2--5-----------4-|
A-2--3--5--------2-|
E-0-----3 x's 2 ---|

Riff 1 x's 3

Riff 2 x's 2

Riff 3:
E----------------|
B----------------|
G----------------|
D-2--5-2-5-2-5-2-|
A-2--3-2-3-2-3-2-|
E-0----0---0---0-|

Riff 2 x's 4

Outro:
E---------------------------|
B---------------------------|
G---------------------------|
D-5-4-5-4-5-4-5-4-5-4-5---2-|
A-3-2-3-2-3-2-3-2-3-2-3---2-|
E-------------------------0-|

Death Comes Ripping

Intro Repeat 4X           ( )= Palm Tute
E-----------------------|   X = Amount Of Times
B-----------------------|
G--------10-99----------|
D-777777-10-99----------|
A-777777-8--77----------|
E-555555----------------|

Verse Repeat 4X
E-----------------------------|
B-----------------------------|
G--------------------10-99----|
D-(7)(7)(7)(7)(7)(7)-10-99----|
A-(7)(7)(7)(7)(7)(7)-8--77----|
E-(5)(5)(5)(5)(5)(5)----------|

Chorus Repeat 4X
E-----------------------------|
B-----------------------------|
G777777-----------------------|
D777777-8-77------------------|
A555555-8-77------------------|
E-------6-55------------------|

Green Hell

e|----------------|----------------|----------------|----------------|
b|----------------|----------------|----------------|----------------|
g|----------------|----------------|----------------|----------------|
D|----------------|----------------|----------------|--------55555555|
A|5555555555555555|5555555555555555|5555555555555555|5555555555555555|
E|3333333333333333|3333333333333333|3333333333333333|3333333333333333|
  PM........................................................:

  00:10
                                    02
e|----------------|----------------|----------------|----------------|
b|----------------|----------------|----------------|----------------|
g|----3-----------|----------------|----------------|----------------|
D|3---1-5-55555555|----------------|----------------|--------55555555|
A|1-5---3-55555555|555555555555--55|5555555555555555|5555555555555555|
E|--3-----33333333|3333333333333333|3333333333333333|3333333333333333|
                   PM.......................................:
  00:20
         03               04               05               06
e|----------------|----------------|----------------|----------------|
b|----------------|----------------|----------------|----------------|
g|----3-----------|----3-----------|----3-----------|----3-----------|
D|3---1-5-55555555|3---1-5-55555555|3---1-5-55555555|3---1-5-55555555|
A|1-5---3-55555555|1-5---3-55555555|1-5---3-55555555|1-5---3-55555555|
E|--3-----33333333|--3-----33333333|--3-----33333333|--3-----33333333|

  00:30
         07               08               09               10
e|----------------|----------------|----------------|----------------|
b|----------------|----------------|----------------|----------------|
g|7---------------|----------------|----------------|----------------|
D|7-RING-OUT------|5---------------|2---------------|5---------------|
A|5-------<<<<<<<<|5-RING-OUT------|2-RING-OUT------|5-RING-OUT------|
E|-------->>>>>>>>|3---------------|0---------------|3---------------|
          PICKSLIDE
  00:40
         11               12               13               14
e|----------------|----------------|----------------|----------------|
b|----------------|----------------|----------------|----------------|
g|----------------|----------------|----------------|----------------|
D|2---------------|5---------------|2---------------|5---------------|
A|2-RING-OUT------|5-RING-OUT------|2-RING-OUT------|5-RING-OUT------|
E|0---------------|3---------------|0---------------|3---------------|

  00:50
        15                                 16               17
e|----------------|----------------|----------------|----------------|
b|----------------|----------------|----------------|----------------|
g|----------------|7---------------|----3-----------|----3-----------|
D|2---------------|7-RING-OUT------|3---1-5-55555555|3---1-5-55555555|
A|2-RING-OUT------|5-------<<<<<<<<|1-5---3-55555555|1-5---3-55555555|
E|0---------------|-------->>>>>>>>|--3-----33333333|--3-----33333333|
                           PICKSLIDE
  01:00
         18               19        20
e|----------------|----------------|----------------|----------------|
b|----------------|----------------|----------------|----------------|
g|----3-----------|----3-----------|----------------|----------------|
D|3---1-5-55555555|3---1-5-55555555|5---------------|----------------|
A|1-5---3-55555555|1-5---3-55555555|5555555555555555|5555555555555555|
E|--3-----33333333|--3-----33333333|3333333333333333|3333333333333333|
                                     PM.............................:
  01:10
  20
e|----------------|----------------|----------------|----------------|
b|----------------|----------------|----------------|----------------|
g|----------------|----------------|----3-----------|----------------|
D|----------------|--------55555555|3---1-5-55555555|----------------|
A|5555555555555555|5555555555555555|1-5---3-55555555|5555555555555555|
E|3333333333333333|3333333333333333|--3-----33333333|3333333333333333|
  PM......................:                          PM.............:
  01:20
                   21                                       22
e|----------------|----------------|----------------|----------------|
b|----------------|----------------|----------------|----------------|
g|----------------|----------------|----------------|----3-----------|
D|----------------|----------------|--------55555555|3---1-5-55555555|
A|5555555555555555|5555555555555555|5555555555555555|1-5---3-55555555|
E|3333333333333333|3333333333333333|3333333333333333|--3-----33333333|
  PM.......................................:
  01:30
         23               24               25               26
e|----------------|----------------|----------------|----------------|
b|----------------|----------------|----------------|----------------|
g|----3-----------|----3-----------|----3-----------|----3-----------|
D|3---1-5-55555555|3---1-5-55555555|3---1-5-55555555|3---1-5-55555555|
A|1-5---3-55555555|1-5---3-55555555|1-5---3-55555555|1-5---3-55555555|
E|--3-----33333333|--3-----33333333|--3-----33333333|--3-----33333333|

  01:40                                                            01:50
         27               28                       29
e|----------------|----------------|--------FEEDBACK|*^^~~^*^~^+++^++|
b|----------------|----------------|----------~^^~^^|*~~^~^~~*^^+^+++|
g|----3-----------|7---------------|-------^~~^^*~*~|TREMOLO^~*^^++++|
D|3---1-5-55555555|7-RING-OUT------|5----------^~^^~|^^*~~^~~++++++5x|
A|1-5---3-55555555|5---------------|5-RING-OUT======|========++++++5x|
E|--3-----33333333|----------------|3-------^^~^~~^~|^~^~~*^~++++++3x|

Wolfs Blood

Riff 1:
E--------------|
B--------------|
G--------------|
D-2------------|
A-2--5-4-------|
E-0--3-2 x's 4-|

Riff 2:
E------------------|
B------------------|
G------------------|
D-555555-2-2-------|
A-333333-2-2 x's 4-|
E--------0-0-------|

Riff 3:
E----------------|
B----------------|
G----------------|
D----------------|
A-4444444-7777777
E-2222222-5555555 x's 4

Riff 2 x's 4

Riff 3 x's 4

Riff 1 x's 4

Riff 2 x's 2

Riff 3 x's 2

Last:
E----------------------------------|
B----------------------------------|
G----------------------------------|
D-333333333-4444444444-------------|
A-111111111-2222222222-444444444-4-|
E----------------------222222222-2-|

Demonomania

Riff 1:
E-------------------------------------|
B-------------------------------------|
G-------------------------------------|
D-4--4---444-----444-----444-----77777|
A-2--2---222-444-222-333-222-444-55555|
E------------222-----111-----222------|  x's 2

Riff 2:
E--------------------------|
B--------------------------|
G--------------------------|
D-444-----444-----444------|
A-222-444-222-444-222-444-3|  x's 2
E-----222-----222-----222-1|

Riff 1 x's 4

Bloodfeast

intro/riff 1
e|-----------------------------------------------------|
B|-----------------------------------------------------|
G|------9-99999--7-77777--7-77777--9-99999-10-10-10-10-|
D|------9-99999--7-77777--7-77777--9-99999-10-10-10-10-|
A|------7-77777--5-55555--5-55555--7-77777-8--8--8--8--|
E|-----------------------------------------------------|


chorus/riff 2

e|-----------------------------------------------------|
B|-----------------------------------------------------|
G|------------------------9-999999-10-10-10-10---------|
D|--7-77777-10-1010101010-9-999999-10-10-10-10---------|
A|--7-77777-10-1010101010-7-777777-8--8--8--8----------|
E|--5-55555-8--8-8-8-8-8-------------------------------|

alternate riff2

e|-----------------------------------------------------|
B|-----------------------------------------------------|
G|----------7-77777-9-999999-10-10-10-10---------------|
D|--7-77777-7-77777-9-999999-10-10-10-10---------------|
A|--7-77777-5-55555-7-777777-8--8--8--8----------------|
E|--5-55555--------------------------------------------|


song flow:

intro/riff1       x4
chorus/riff2      x2
intro/riff1       x4
chorus/riff2      x2
alternate riff2   x2
intro/riff1       x4
chorus/riff2      x2
alternate riff2   x2
intro/riff1       x4

Hellhound

Riff 1:
E-----------------------------------|
B-----------------------------------|
G-----------------------------------|
D-222222------77-55-----------------|
A-222222-5555-55-33-55-999999-------|
E-000000-3333-------33-777777 x's 4-|

Riff 2:
E-------------------------------------------------|
B-------------------------------------------------|
G-------------------------------------------------|
D-------------------------------------------------|
A-4-44444444-3-33333333-4-4444444-3-333-3-3-3-3-3-|
E-2-22222222-1-11111111-2-2222222-1-111-1-1-1-1-1-|
pm  ........   ........   .......   ... . . . . .

Riff 3:
E--------------------------|
B--------------------------|
G--------------------------|
D--------------------------|
A-5--3---------3-3-3-3-3-3-|
E-3--1  x's 4--1-1-1-1-1-1-|
pm             . . . . . .

Riff 1 x's 5

End:
E--------------------------|
B--------------------------|
G--------------------------|
D-222222------77-55--------|
A-222222-5555-55-33-55---5-|
E-000000-3333-------33---3-|

I Think I Might Have Gotten Hellhound And Hell Bound Mixed Up But I'm Not Sure

                        -Rock On, Iowa

            
            
Suggest correction
Creating personal tab
Creating personal tab
You can edit any tab online and save it as your Personal.

You can edit, replace or remove any tab part or add personal notes – all changes will be seen only by you.

Personal tabs can be accessed anytime from any device, even offline.
Learn more »
comments
print report bad tab
guest
You may want to rate the tab now too:
select rating
Wanna post a correction for this tab? Suggest correction