Oops, an error
Loading. Please wait.
We have an official Helena tab made by UG professional guitarists. Check out the tab »
×
by Misfits
11,927 views 9 this week
2 commentsread comments
1 2 3 4 5
x 7
add to favorites
×
Save as Personal and add changes to this tab that will be seen only by you. Learn more ›
×
You can save this tab as Personal to edit and correct it or add notes. All changes will be seen only by you. Learn more »
launch autoscroll
font size
0
reset
guitar tuner
edit
Autoscroll
slow
fast
+/-
esc
set tempo
stop
Author
Difficulty
Artist:Misfits.
Song:Helena
Tunning:E.A.D.G.
Tab:Lopez017


*= let ring
h= hammer on
\= slide

Intro
G:-------------------------------------------|
D:-------------------------------------------|
A:-1----1----------1----------1----------1---|
E:3-1--3-1--0-1-2-3-1--0-1-2-3-1--0-1-2-3-1--|

Verse 1
G:---------------------|
D:---------------------|
A:-------1----------1--| x7
E:0-1-2-3-1--0-1-2-3-1-|

Pre-Verse 1
G:-------------------------------------------|
D:-------------------------------------------|
A:666h777-444h666-22-44----------------------| x2
E:---------------------666h777-444-666-22-44-|

Pre-Verse 2
G:-----------------------------|
D:-----------------------------|
A:6--------------6-------------| x2
E:-6-7-9-7-6-4-6--6-7-9-000-00-|


Verse 2
G:----------------------------------|
D:----------------------------------|
A:6666666666666666-4444444444444444- x2
E:----------------------------------

G:-----------------------------------------|
D:-----------------------------------------|
A:666666-999-888-666-444444-666------------| x2
E:------------------------------777-999----|


Pre-Verse 2
G:-----------------------------|
D:-----------------------------|
A:6--------------6-------------| x2
E:-6-7-9-7-6-4-6--6-7-9-000-00-|


Verse 2
G:----------------------------------|
D:----------------------------------|
A:6666666666666666-4444444444444444- x2
E:----------------------------------

G:-----------------------------------------|
D:-----------------------------------------|
A:666666-999-888-666-444444-666------------| x2
E:------------------------------777-999----|


Pre-Verse 1
G:-------------------------------------------|
D:-------------------------------------------|
A:666h777-444h666-22-44----------------------| x4
E:---------------------666h777-444-666-22-44-|


Bridge
G:-----------------------------------------|
D:-----------------------------------------|
A:-----------------------------------------|
E:6-66666-2-4-7-77777-2-4-6-66666\1--------|


Outro
G:-------------------------------------------|
D:-------------------------------------------|
A:-1----1----------1----------1----------1---|
E:3-1--3-1--0-1-2-3-1--0-1-2-3-1--0-1-2-3-1--|

G:-------------------------------------------------------|
D:-------------------------------------------------------|
A:-------1----------1----------1----------1----------1---|
E:0-1-2-3-1--0-1-2-3-1--0-1-2-3-1--0-1-2-3-1--0-1-2-3-3*-|

            
            
Suggest correction
Creating personal tab
Creating personal tab
You can edit any tab online and save it as your Personal.

You can edit, replace or remove any tab part or add personal notes – all changes will be seen only by you.

Personal tabs can be accessed anytime from any device, even offline.
Learn more »
comments
print report bad tab
2 comments total.
0 reply
RyanWRAITH 10 Feb 02, 2009 07:31 PM

wow a misfits song with a slightly challenging bass line :p
good job sounds great

-1 reply
arrell 229 Jul 03, 2010 12:08 AM

Good job, but you're missing a few subtleties.

guest
You may want to rate the tab now too:
select rating
Wanna post a correction for this tab? Suggest correction