Oops, an error
Loading. Please wait.
We have an official Hybrid Moments tab made by UG professional guitarists. Check out the tab »
×
by Misfits
9,988 views 1 this week
2 commentsread comments
1 2 3 4 5
x 7
add to favorites
×
Save as Personal and add changes to this tab that will be seen only by you. Learn more ›
×
You can save this tab as Personal to edit and correct it or add notes. All changes will be seen only by you. Learn more »
launch autoscroll
font size
0
reset
how to read this tab
guitar tuner
backing track
0:00
0:00
edit
Autoscroll
slow
fast
+/-
esc
set tempo
stop
Author
Difficulty
INTRO/CHORUS

E|----------------------------------------------|
B|----------------------------------------------|
G|------------------------8---------------------|
D|---12------9------5-----8-x8--12--------------|
A|---12—X16--9—X16--5-X8--6-----12-X16----------|
E|---10------7------3-----------10--------------| X2

VERSE – 0:21

E|----------------------------------------------|
B|----------------------------------------------|
G|----------------------7-----------------------|
D|---9-----7------5-----7-x8--7-----5-----7-----|
A|---9-X8--7-X16--5-X8--5-----7-X8--5-X8--7-X8--|
E|---7-----5------3-----------5-----3-----5-----|

CHORUS – 0:31

E|----------------------------------------------|
B|----------------------------------------------|
G|------------------------8---------------------|
D|---12------9------5-----8-x8--12--------------|
A|---12—X16--9—X16--5-X8--6-----12-X16----------|
E|---10------7------3-----------10--------------| X2

VERSE – 0:50

E|----------------------------------------------|
B|----------------------------------------------|
G|----------------------7-----------------------|
D|---9-----7------5-----7-x8--7-----5-----7-----|
A|---9-X8--7-X16--5-X8--5-----7-X8--5-X8--7-X8--|
E|---7-----5------3-----------5-----3-----5-----|


CHORUS – 0:59

E|----------------------------------------------|
B|----------------------------------------------|
G|------------------------8---------------------|
D|---12------9------5-----8-x8--12--------------|
A|---12—X16--9—X16--5-X8--6-----12-X16----------|
E|---10------7------3-----------10--------------| X2

OUTRO – 1:18

E|------------------------------------------------|
B|------------------------------------------------|
G|------------------------------------------------|
D|-12------9------5—5-5-5-5-5--7-7-7-7-7-7---12~~-|
A|-12—X16--9—X16--5-5-5-5-5-5--7-7-7-7-7-7---12~~-|
E|-10------7------3-3-3-3-3-3--5-5-5-5-5-5---10~~-|

            
            
Suggest correction
Creating personal tab
Creating personal tab
You can edit any tab online and save it as your Personal.

You can edit, replace or remove any tab part or add personal notes – all changes will be seen only by you.

Personal tabs can be accessed anytime from any device, even offline.
Learn more »
comments
print report bad tab
2 comments total.
0 reply
smartin6988 177 Aug 21, 2009 04:45 PM

this is right but you should of shown every note instead of just adding x8 to the side of it. ill give you 4 stars

0 reply
Irishman- 103 Dec 12, 2010 03:33 AM

yeah that's fair enough, perhaps laziness on my part there.. But i assume most people on this site at least know theres 8 beats in a bar, so if i put x8, play it for 1 bar.. if i put x16, play it for two.
i did individual notes at the end where it was necessary.

guest
You may want to rate the tab now too:
select rating
Wanna post a correction for this tab? Suggest correction