Oops, an error
Loading. Please wait.
We have an official Kong At The Gates tab made by UG professional guitarists. Check out the tab »
×
by Misfits
1,167 views 1 this week
1 commentread comment
1 2 3 4 5
1 last vote to show rating
add to favorites
×
Save as Personal and add changes to this tab that will be seen only by you. Learn more ›
×
You can save this tab as Personal to edit and correct it or add notes. All changes will be seen only by you. Learn more »
launch autoscroll
font size
0
reset
guitar tuner
edit
Autoscroll
slow
fast
+/-
esc
set tempo
stop
Kong At The Gates - Misfits
tabbed by: ryan b

***rest for gong/chant/roars/drums (0:00 - 0:16)

Riff A: (once)
Gb-------
Db-------
Ab-------
Eb--6\1--

Riff B: (twice)
Gb--------------------------------------------------
Db--------------------------------------------------
Ab--0------3-2-----3-2-0----3---2-3--2-3--2-3--2----
Eb-----------------------------------------------3--

Riff C: (twice)
Gb--------------------------------------------------
Db---------3-2--------------3---2-3--2-3--2-3--2----
Ab--0--------------3-2-0-------------------------3--
Eb--------------------------------------------------

Riff B: (once)

Riff D: (once)
Gb--------------------------------------------------
Db--------------------------------------------------
Ab--0--------------3-2-0-------------------------0--
Eb---------2-1-------------2--1-2--1-2--1-2--1-0----


            
            
Suggest correction
Creating personal tab
Creating personal tab
You can edit any tab online and save it as your Personal.

You can edit, replace or remove any tab part or add personal notes – all changes will be seen only by you.

Personal tabs can be accessed anytime from any device, even offline.
Learn more »
Give kudos to tab author, rate the tab!
1 2 3 4 5
comments
print report bad tab
1 comment total.
0 reply
Punkwithcolor 100 Apr 23, 2015 03:22 PM, edited at 07:25 pm

The riff D is supposed to be
Gb--------------------------------------------------
Db--------------------------------------------------
Ab--0--------------3-2-0-------------------------0--
D ---------2-1-------------2--1-2--1-2--1-2--1-----

guest
Wanna post a correction for this tab? Suggest correction