Oops, an error
Loading. Please wait.
We have an official Last Caress tab made by UG professional guitarists. Check out the tab »
×
by Misfits
46,593 views 6 this week
5 commentsread comments
1 2 3 4 5
x 24
add to favorites
×
Save as Personal and add changes to this tab that will be seen only by you. Learn more ›
×
You can save this tab as Personal to edit and correct it or add notes. All changes will be seen only by you. Learn more »
launch autoscroll
font size
0
reset
guitar tuner
backing track
0:00
0:00
edit
Autoscroll
slow
fast
+/-
esc
set tempo
stop
LAST CARESS - Misfits
Tuning: Standard (EADG)

The amount of times each note is played might be slightly off at times, but other than 
it should be correct.

 [Intro]
G|------------------|
D|-35----353~--0~---|
A|------------------|
E|------------------|

 [Verse]
G|---------------|
D|----------35---|  (x4)
A|-33333333------|
E|---------------|

G|---------------------------------------|
D|-33333333-00000000---------------------|
A|-------------------33333333-33333333---|
E|---------------------------------------|

 [Chorus]
G|----------------------------22222222-----------------------|
D|33333333-55555555------2222------------33333333-55555555---|
A|------------------3333-------------------------------------|
E|-----------------------------------------------------------|

G|--------------------|
D|----------333-555---|  (x2)
A|-33333333-----------|
E|--------------------|

 [Verse]
G|--------------|
D|---------35---|  (x2)
A|-33333333-----|
E|--------------|

G|---------------------------------------|
D|-33333333-00000000---------------------|
A|-------------------33333333-33333333---|
E|---------------------------------------|

 [Chorus]
G|-----------------------------22222222-----------------------|
D|-33333333-55555555------2222------------33333333-55555555---|
A|-------------------3333-------------------------------------|
E|------------------------------------------------------------|

G|--------------------|
D|----------333-555---|  (x2)
A|-33333333-----------|
E|--------------------|

 [Verse]
G|--------------|
D|---------35---|  (x2)
A|-33333333-----|
E|--------------|

G|---------------------------------------|
D|-33333333-00000000---------------------|
A|-------------------33333333-33333333---|
E|---------------------------------------|

 [Chorus]
G|-----------------------------22222222-----------------|
D|-33333333-55555555------2222------------33333333-5~---|
A|-------------------3333-------------------------------|
E|------------------------------------------------------|

G|---------------------|
D|-----------333-555---|  (x8)
A|--33333333-----------|
E|---------------------|

G|-------|
D|-------|
A|--3~---|
E|-------|

Key:
~ Let Ring

            
            
Suggest correction
Creating personal tab
Creating personal tab
You can edit any tab online and save it as your Personal.

You can edit, replace or remove any tab part or add personal notes – all changes will be seen only by you.

Personal tabs can be accessed anytime from any device, even offline.
Learn more »
comments
print report bad tab
5 comments total. Showing first comments. show 1 bad comment
0 reply
AngelWolf 187 Nov 08, 2009 03:39 PM

if you play along it sounds brilliant. well done. though as i know u said at the top... but i think its 14 notes in stead of the 8s
:)

0 reply
AngelWolf 187 Nov 12, 2009 01:01 AM

or rather 12 notes but 14 if u count the end bits

guest
You may want to rate the tab now too:
select rating
Wanna post a correction for this tab? Suggest correction