Oops, an error
Loading. Please wait.

Teenagers From Mars bass

version 2
version 2

Whole song

Interactive

by Misfits
911 views 1 this week
1 commentread comment
1 2 3 4 5
1 last vote to show rating
add to favorites
×
Save as Personal and add changes to this tab that will be seen only by you. Learn more ›
×
You can save this tab as Personal to edit and correct it or add notes. All changes will be seen only by you. Learn more »
launch autoscroll
font size
0
reset
guitar tuner
backing track
0:00
0:00
edit
Autoscroll
slow
fast
+/-
esc
set tempo
stop
Author
im sure this is what Jerry Only plays and it sounds more like it than what i learn first of all...
when i submitted this last night i played it and thought yeah its sounding more like it... 
but.. then i played around with the opening a little more.. 
and then thought hang on... what about this.. 
and to be honest it sounds a lot better to me.

yah so ive edited this and now i im damn sure its nearly 100% right sounds good to me:)
Riff 1 

	G|---------------------------------------------|
	D|---------------------------------------------|
	A|---------------------------------------------|
	E|--3-3-3-3-3-4-4-4-4-4-4-1-1------------------ |( 6 times )

		
Riff 2

	G|--------------------------------------------|
	D|--------------------------------------------|
	A|--5-5-5-5-5-0-0-0-0-0-0-0-0-------------------|
	E|--------------------------------------------|(4 times)


		Riff 3

	G|--------------------------------------------|
	D|--------------------------------------------|
	A|--0-0-0-0-0-7-7-7-7-7-7-7-7-------------------|
	E|--------------------------------------------|( 3 times )

		Riff 4

	G---------------------------------------------|
	D---------------------------------------------|
	A--8-8-8-8-8-0-0-0-0-0-0-0-0--------------------|
	E---------------------------------------------|( 2 times )

	
		Riff 1 ( 6 times )
		Riff 2 ( 4 times )
		Riff 3 ( 3 times )
		Riff 4 ( 2 times )
		Riff 1 ( 6 times )
		Riff 2 ( 4 times )
		Riff 3 ( 3 times )
		Riff 4 ( 2 times )
		Riff 3 ( 3 times )
   then...
		Riff 5
	
	G---------------------------------------------------------------------|
	D---------------------------------------------------------------------|
	A--0-0-0-0-0-2-2-2-2-2-2-2-2-- then at the end of the last one ----0x0-2-|
	E----------------------------------------------------------------------|     
            (until the end)                            x = muted note

note he does slide out at the end ive noticed so.. i do slide out from 4th fret on 
E or A sounds good on both

i play the song like this because it doesnt sound right any other way ive tried.

email me for comments at madaxemanfromhell@hotmail.co.uk... or.. visit AngelWolf on here:)

            
            
Suggest correction
Creating personal tab
Creating personal tab
You can edit any tab online and save it as your Personal.

You can edit, replace or remove any tab part or add personal notes – all changes will be seen only by you.

Personal tabs can be accessed anytime from any device, even offline.
Learn more »
Give kudos to tab author, rate the tab!
1 2 3 4 5
comments
print report bad tab
1 comment total.
0 reply
Super.rich1 30 May 01, 2014 01:49 PM

Yeah, this one's got the first riff right - thanks :)

guest
You may want to rate the tab now too:
select rating
Wanna post a correction for this tab? Suggest correction