Oops, an error
Loading. Please wait.

Answers tab

version 1
version 1

Whole song

Interactive

4,041 views 1 this week
no commentswrite comment
1 2 3 4 5
x 3
add to favorites
×
Save as Personal and add changes to this tab that will be seen only by you. Learn more ›
×
You can save this tab as Personal to edit and correct it or add notes. All changes will be seen only by you. Learn more »
launch autoscroll
font size
0
reset
how to read this tab
guitar tuner
edit
Autoscroll
slow
fast
+/-
esc
set tempo
stop
[Answers]
[Monument]
[Miss May I]

Tuning: Drop C (CGCFAD/Drop D 1 Step Down)
joshuaoliveira@hotmail.com

[Riff 1a] - [00:03] - [00:21----------------------------------------| - [4x]
- ------------------------------------------------------------------|
- ------------------------------------------------------------------|
- ------------------------------------------------------------------|
- ------------------------------------------------------------------|
- -5-----5-----5-----5-----5-------5-----5-----5--------------------|
- ---0-0---0-0---0-0---0-0---7-8-5---0-0---0-0---0-3-1-0-1-4-3-1-3--|
PM   ...   ...   ...   ...           ...   ...   .

[Riff 2b] - [00:16] - [00:21----------------------------------------| - [2x]
- ------------------------------------------------------------------|
- ------------------------------------------------------------------|
- ------------------------------------------------------------------|
- ------------------------------------------------------------------|
- -8-----8-----8-----8-----8-------8-----8-----8--------------------|
- ---0-0---0-0---0-0---0-0---7-8-5---0-0---0-0---0-3-1-0-1-4-3-1-3--|
PM   ...   ...   ...   ...           ...   ...   .

----------------------------------------------------------------------------

[Riff 3] - [00:21] - [00:29-----------------------------------------| - [2x]
- ------------------------------------------------------------------|
- ------------------------------------------------------------------|
- ------------------------------------------------------------------|
- ------------------------------------------------------------------|
- -0-----0-----0-----0-----0-------0-----0-----0--------------------|
- -0-----0-----0-----0-----0-7-8-5-0-----0-----0---3-1-0-1-4-3-1-3--|
PM .........................       .............

----------------------------------------------------------------------------

[Riff 4a] - [00:29] - [00:47]
- ---------------------------------|
- ---------------------------------|
- ---------------------------------|
- -0---8---7---5---0---8---7---5---| strummed, 2 bars each
- -0---8---7---5---0---8---7---5---|
- -0---8---7---5---0---8---7---5---|

[Riff 4b] - [00:29] - [00:47]
- --------------------------------------------------------|
- --------------------------------------------------------|
- -7------10-----15-----14-----15-----12-----14-----10----|
- -x------x------x------x------x------x------x------x-----|
- -5(16x)-8(16x)-13(6x)-12(6x)-13(4x)-10(5x)-12(7x)-8(4x)-|
- --------------------------------------------------------|

- ---------------------------------------------------------|
- ---------------------------------------------------------|
- -10-----12------15-----14-----15-----12-----14-----10----|
- -x------x-------x------x------x------x------x------x-----|
- -8(21x)-10(11x)-13(6x)-12(6x)-13(4x)-10(5x)-12(7x)-8(4x)-|
- ---------------------------------------------------------|

----------------------------------------------------------------------------

[Riff 5] - [00:47] - [00:56-------------------------------------------| - [2x]
- --------------------------------------------------------------------|
- --------------------------------------------------------------------|
- --------------------------------------------------------------------|
- --------------------------------------------------------------------|
- -0-----0-----0-----0-------------0-----0-----0----------------------|
- -0-----0-----0-----0-------------0-----0-----0-----3-1-0-1-4-3-1-3--|
PM .............................................

----------------------------------------------------------------------------

[Riff 6] - [00:56] - [01:05]
- -----------------------------------------------------------------|
- -----------------------------------------------------------------|
- -----------------------------------------------------------------|
- -----------------------------------------------------------------|
- -0-----0-----0-----0-----0-------0-----0-----0-------------------|
- -0-----0-----0-----0-----0-7-8-5-0-----0-----0---3-1-0-1-4-3-1-3-|
PM .........................       .............

- -----------------------------------------------------------------|
- -----------------------------------------------------------------|
- -----------------------------------------------------------------|
- -----------------------------------------------------------------|
- -0-----0-----0-----0-----0-------0-----0-----0-------------------|
- -0-----0-----0-----0-----0-------0-----0-----0---3-1-0-1-4-3-1-3-|
PM .............................................

----------------------------------------------------------------------------

[Riff 7, Guitar 1 & 2] - [01:05] - [01:19---------------------------| - [3x]
- ------------------------------------------------------------------|
- ------------------------------------------------------------------|
- ------------------------------------------------------------------|
- ---------------7---------------8---------------7---8-7-5-7-5------|
- ---6p5---3h5-------6p5---3h5-------6p5---3h5-----------------7/8--|
- -0-----0-----0---0-----0-----0---0-----0-----0---0----------------|
-
- -----------------------------------------------------------------|
- -----------------------------------------------------------------|
- -----------------------------------------------------------------|
- -0~----------------------------------------------[12\10\8\6\4\2]-|
- -0~--------------------------------------------------------------|
- -0~--------------------------------------------------------------|

second guitar joins in with first part 2nd and 3rd time

that thing there that yur goin wtf is that?! is touched harmonics starting
at 12 sliding down to 2. you just touch, pluck and slide down lol dont
press :P

----------------------------------------------------------------------------

[Riff 8] - [01:19] - [01:36-------------------------------------------| - [2x]
- --------------------------------------------------------------------|
- --------------------------------------------------------------------|
- --------------------------------------------------------------------|
- -8-----8---7---5------------------8-----8---7---5-------------------|
- ---------------------8---8---8/10---------------------8---8---8/10--|
- ---5-5---5---5---5-5---5---5--------5-5---5---5---5-5---5---5-------|
PM   ...   .   .   ...   .            ...   .   .   ...   .   .

- -----------------------------------------------------------------|
- -----------------------------------------------------------------|
- -----------------------------------------------------------------|
- -7-----7---5---------------------7-----7---5---------------------|
- ---------------8-----7---7---7/8---------------8-----7---7---7/8-|
- ---0-0---0---0---0-0---0---0-------0-0---0---0---0-0---0---0-----|
PM   ...   .   .   ...   .   .       ...   .   .   ...   .   .

----------------------------------------------------------------------------

[Riff 9a] - [01:36] - [01:54]
- ------------------------------------------------------|
- ------------------------------------------------------|
- ------------------------------------------------------|
- -0------8------7--------------------------------------|
- -0------8------7------0-----0-----0-----0-----0-0-0-0-|
- -0(16x)-8(16x)-7(16x)-0-----0-----0-----0-----0-0-0-0-|
PM                      ...............................

- ------------------------------------------------------|
- ------------------------------------------------------|
- ------------------------------------------------------|
- -0------8------7--------------------------------------|
- -0------8------7------0-----0-----0-----0-----0-0-----|
- -0(16x)-8(16x)-7(16x)-0-----0-----0-----0-----0-0-----|
PM                      ...........................

[Riff 9b] - [01:36] - [01:54]
- ------------------------------------------------------|
- ------------------------------------------------------|
- -7------10-----15-----14-----15-----------------------|
- -x------x------x------x------x------------------------|
- -5(16x)-8(16x)-13(6x)-12(6x)-13(4x)-------------------|
- ------------------------------------------------------|

- ------------------------------------------------------|
- ------------------------------------------------------|
- -10-----12------15-----14-----15----------------------|
- -x------x-------x------x------x-----------------------|
- -8(21x)-10(11x)-13(6x)-12(6x)-13(4x)------------------|
- ------------------------------------------------------|

----------------------------------------------------------------------------

[Riff 10a] - [01:54] - [02:12]
- ------------------------------------|
- ------------------------------------|
- ------------------------------------|
- -0~------0~------0~------0~--4-1-0--|
- -0~------0~------0~------0~--4-1-0--|
- -0~------0~------0~------0~--4-1-0--|

[Riff 10b] - [01:54] - [02:12]
- -----------------------------------------------------------------|
- -----------------------------------------------------------------|
- -----------------------------------------------------------------|
- -----------------------------------------------------------------|
- -0-0-0-0-----0-0-0-0-----0-------------------0-0-0-0-0-0-0-0-0-0-|
- -0-0-0-0-----0-0-0-0-----0-------------------0-0-0-0-0-0-0-0-0-0-|
PM ...............................................................

- -----------------------------------------------------------------|
- -----------------------------------------------------------------|
- -----------------------------------------------------------------|
- -------------------------------------------------4-----1-----0---|
- -0-0-0-0-----0-0-0-0-----0-------------------0-0-4-----1-----0---|
- -0-0-0-0-----0-0-0-0-----0-------------------0-0-4-----1-----0---|
PM ...............................................

----------------------------------------------------------------------------

[Riff 11] - [02:12] - [02:30]
- -----------------------------------------------------------------|
- -----------------------------------------------------------------|
- -----------------------------------------------------------------|
- -----------------------------------------------------------------|
- -0-0-0-0-----0-0-0-0-----0-0-0-0-------------00000-0-0-0-0-0-0-0-|
- -0-0-0-0-----0-0-0-0-----0-0-0-0-------------00000-0-0-0-0-0-0-0-|
PM ...............................................................

- -----------------------------------------------------------------|
- -----------------------------------------------------------------|
- -----------------------------------------------------------------|
- -------------------------------------------------4-----1-----0---|
- -0-0-0-0-----0-0-0-0-----0-------------------0---4-----1-----0---|
- -0-0-0-0-----0-0-0-0-----0-------------------0---4-----1-----0---|
PM .............................................

- -----------------------------------------------------------------|
- -----------------------------------------------------------------|
- -----------------------------------------------------------------|
- -----------------------------------------------------------------|
- -0-0-0-0-----0-0-0-0-----0-0-0-0-------------00000-0-0-0-0-0-0-0-|
- -0-0-0-0-----0-0-0-0-----0-0-0-0-------------00000-0-0-0-0-0-0-0-|
PM ...............................................................

- -----------------------------------------------------------------|
- -----------------------------------------------------------------|
- -----------------------------------------------------------------|
- ---------------------------------4-----1-----0---5-----4-----1---|
- -0-0-0-0-----0-0-0-0-----0-0-0-0-4-----1-----0---5-----4-----1---|
- -0-0-0-0-----0-0-0-0-----0-0-0-0-4-----1-----0---5-----4-----1---|
PM ...............................

----------------------------------------------------------------------------

[Riff 1a + 1b] - [02:30] - [02:48]

[Riff 12] - [02:48] - [02:51]
- -----|
- -----|
- -----|
- -5---|
- -5---|
- -5---|

----------------------------------------------------------------------------

[Symbols] - [

PM... Palm Mute notes with (...) under them
x     Dead Note
( x)  Play x amount of times
/     Slide Up
\     Slide Down
h     Hammer On
p     Pull Off
~     Let Ring

:)

            
            
Suggest correction
Creating personal tab
Creating personal tab
You can edit any tab online and save it as your Personal.

You can edit, replace or remove any tab part or add personal notes – all changes will be seen only by you.

Personal tabs can be accessed anytime from any device, even offline.
Learn more »
Give kudos to tab author, rate the tab!
1 2 3 4 5
comments
print report bad tab
guest
You may want to rate the tab now too:
select rating
Wanna post a correction for this tab? Suggest correction