Oops, an error
Loading. Please wait.
We have an official Forgive And Forget tab made by UG professional guitarists. Check out the tab »
×
7,002 views 1 this week
no commentswrite comment
1 2 3 4 5
1 last vote to show rating
add to favorites
×
Save as Personal and add changes to this tab that will be seen only by you. Learn more ›
×
You can save this tab as Personal to edit and correct it or add notes. All changes will be seen only by you. Learn more »
launch autoscroll
font size
0
reset
how to read this tab
guitar tuner
edit
Autoscroll
slow
fast
+/-
esc
set tempo
stop
Author
----------------------------------------------------------
MISS MAY I-Forgive And Forget
-----------------------------

-Tabbed by: timax

-Tunning: Drop C (C-G-C-F-A-D)

I just found the lead of this song.

Intro x4 ALTERNATE PICKING
D|-------------------------------------------------------------------------|
A|-------------------------------------------------------------------------|
F|-------------------------------------------------------------------------|
C|-------------------------------------------------------------------------|
G|-----------------4-------------------------------------------------------|
C|-0-8-7-4-5-1-4-1--1-5----------------------------------------------------|

Verse I x4
D|-------------------------------------------------------------------------|
A|-------------------------------------------------------------------------|
F|-------------------------------------------------------------------------|
C|-------------------------------------------------------------------------|
G|------------------------------------1----2-------------------------------|
C|0--0-8-0-7-0-4-00-4-00-4-5-1-4-1-11---44---------------------------------|
     .   .   .   ..   ..           ..   ..

Intro x2


Verse II x5
D|-------------------------------------------------------------------------|
A|-------------------------------------------------------------------------|
F|-------------------------------------------------------------------------|
C|-------------------------------------------------------------------------|
G|---8---8----8---8---8----12---12----10----10---10------------------------|
C|00---0---00--00---0---88----8----77----77----7---------------------------|
  ..   .   ..  ..   .   ..    .    ..    ..    .

Pre Chorus x4
D|--1----------------------------------------------------------------------|
A|----------1-------6------------------------------------------------------|
F|----2-----------2--------------------------------------------------------|
C|3-------2---2/3----------------------------------------------------------|
G|------3------------------------------------------------------------------|
C|-------------------------------------------------------------------------|


D|----------------------------------------------------------1--------------|
A|-------------------------------------------------------------------------|
F|-------------------------------------------------------------------------|
C|0----------0-0----------------0----------0-0------------2----------------|
G|0-00000000-0-0-00000000-------0-00000000-0-0-00000000-3------------------|
C|0-00000000-0-0-00000000-0-1h4-0-00000000-0-0-00000000--------------------|
    ........     ........         ........     ........

Chorus x 4
D|--1-----------------|------1---------------------------------------------|
A|----------1-------6-|----1-----------------------------------------------|
F|----2-----------2---|----------------------------------------------------|
C|3-------2---2/3-----|--2-------------------------------------------------|
G|------3-------------|3---------------------------------------------------|
C|--------------------|----------------------------------------------------|


Breakdown
D|-------------------------------------------------------------------------|
A|-------------------------------------------------------------------------|
F|-------------------------------------------------------------------------|
C|-------------------------------------------------------------------------|
G|6-6-6-6-6-6-6-6-6-6-6-6-6-6-6-6-66666666666666666666666666666666---------|
C|0-0-0-0-0-0-0-0-0-0-0-0-0-0-0-0-00000000000000000000000000000000---------|
  . . . . . . . . . . . . . . . . ................................

D|-------------------------------------------------------------------------|
A|-------------------------------------------------------------------------|
F|-------------------------------------------------------------------------|
C|-------------------------------------------------------------------------|
G|00--0-0-0-0--00--0-0-0-0-------------------------------------------------|
C|00--0-0-0-0--00--0-0-0-0-------------------------------------------------|
  ..  . . . .  ..  . . . .

D|-------------------------------------------------------------------------|
A|-------------------------------------------------------------------------|
F|-------------------------------------------------------------------------|
C|-------------------------------------------------------------------------|
G|6-6-6-6-6-6-6-6-6-6-6-6-6-6-6-6-66666666666666666666666666666666---------|
C|0-0-0-0-0-0-0-0-0-0-0-0-0-0-0-0-00000000000000000000000000000000---------|
  . . . . . . . . . . . . . . . . ................................

D|-------------------------------------------------------------------------|
A|-------------------------------------------------------------------------|
F|-------------------------------------------------------------------------|
C|-------------------------------------------------------------------------|
G|00--0-0-0-0--00--000000--------------------------------------------------|
C|00--0-0-0-0--00--000000--------------------------------------------------|
  ..  . . . .  ..  ......

Outro   Let Notes Ring
D|-------------------------------------------------------------------------|
A|-------------------------------------------------------------------------|
F|10-----9-----12-----10--10--9--------------------------------------------|
C|-7-----7-----10------7---7--7--------------------------------------------|
G|-------------------------------------------------------------------------|
C|-------------------------------------------------------------------------|

D|-------------------------------------------------------------------------|
A|-------------------------------------------------------------------------|
F|-------------------------------------------------------------------------|
C|10101010101010101010101010101010-0-0-0-999-0-0-0-999-0-0-9-0-------------|
G|-7-7-7-7-7-7-7-7-7-7-7-7-7-7-7-7-0-0-0-777-0-0-0-777-0-0-7-0-------------|
C|---------------------------------0-0-0-----0-0-0-----0-0---0-------------|
                                   . . .     . . .     . .   .

D|-------------------------------------------------------------------------|
A|-------------------------------------------------------------------------|
F|-------------------------------------------------------------------------|
C|-12121212121212121212121212121212-0-0-0-101010-0-0-0-101010-0-0-10-0-----|
G|-10101010101010101010101010101010-0-0-0--7-7-7-0-0-0--7-7-7-0-0--7-0-----|
C|----------------------------------0-0-0--------0-0-0--------0-0----0-----|
                                    . . .        . . .        . .    .

D|-------------------------------------------------------------------------|
A|-------------------------------------------------------------------------|
F|-------------------------------------------------------------------------|
C|10101010101010101010101010101010-0-0-0-999-0-0-0-999-0-0-9-0-------------|
G|-7-7-7-7-7-7-7-7-7-7-7-7-7-7-7-7-0-0-0-777-0-0-0-777-0-0-7-0-------------|
C|---------------------------------0-0-0-----0-0-0-----0-0---0-------------|
                                   . . .     . . .     . .   .


D|------------------------------------------------------------------------||
A|------------------------------------------------------------------------||
F|------------------------------------------------------------------------||
C|-12121212121212121212121212121212-0-0-0-101010-0-0-0-1010910910910------||
G|-10101010101010101010101010101010-0-0-0--7-7-7-0-0-0--7-77-77-77-7------||
C|----------------------------------0-0-0--------0-0-0--------------------||
                                    . . .        . . .

            
            
Suggest correction
Creating personal tab
Creating personal tab
You can edit any tab online and save it as your Personal.

You can edit, replace or remove any tab part or add personal notes – all changes will be seen only by you.

Personal tabs can be accessed anytime from any device, even offline.
Learn more »
Give kudos to tab author, rate the tab!
1 2 3 4 5
comments
print report bad tab
guest
You may want to rate the tab now too:
select rating
Wanna post a correction for this tab? Suggest correction