Oops, an error
Loading. Please wait.

Relentless Chaos tab

version 2
version 2

Whole song

Interactive

10,521 views 1 this week
no commentswrite comment
1 2 3 4 5
x 3
add to favorites
×
Save as Personal and add changes to this tab that will be seen only by you. Learn more ›
×
You can save this tab as Personal to edit and correct it or add notes. All changes will be seen only by you. Learn more »
launch autoscroll
font size
0
reset
how to read this tab
guitar tuner
edit
Autoscroll
slow
fast
+/-
esc
set tempo
stop
I know there are other tabs of this song, but I'm pretty sure this one is 100% accurate 
a lot better than the other tabs.

Great song too :)

----------------------

Miss May I
“Relentless Chaos”
Monument

Drop C (C,G,C,F,A,D)
Intermediate Level

Tempo - Q=108


INTRO/CHORUS---
Guitar 1:
(0:02)
|-----------------------------------------------------------------------------|
|-----------------------------------------------------------------------------|
|-14-----12---14---10-----10-------10---14-----12---14---10-----10-------10---|
|----0-0----0----0----0-0----0-0-0----0----0-0----0----0----0-0----0-0-0----0-|
|-----------------------------------------------------------------------------|
|-----------------------------------------------------------------------------|
     . .    .    .    . .    . . .    .    . .    .    .    . .    . . .    .

(0:06)
|-----------------------------------------------------------------------------|
|-----------------------------------------------------------------------------|
|-----------------------------------------------------------------------------|
|-14-----12---14---10-----10-------10---14-----12---14---10-----10-------10---|
|----0-0----0----0----0-0----0-0-0----0----0-0----0----0----0-0----0-0-0----0-|
|-----------------------------------------------------------------------------|
     . .    .    .    . .    . . .    .    . .    .    .    . .    . . .    .

(0:11)
|-----------------------------------------------------------------------------|
|-----------------------------------------------------------------------------|
|-14-----12---14---10-----10-------10---14-----12---14---10-----10-------10---|
|----0-0----0----0----0-0----0-0-0----0----0-0----0----0----0-0----0-0-0----0-|
|-----------------------------------------------------------------------------|
|-----------------------------------------------------------------------------|
     . .    .    .    . .    . . .    .    . .    .    .    . .    . . .    .

(0:15)
|-----------------------------------------------------------------------------|
|-----------------------------------------------------------------------------|
|-----------------------------------------------------------------------------|
|-14-----12---14---10-----10-------10---14-----12---14---10-----10-------10---|
|----0-0----0----0----0-0----0-0-0----0----0-0----0----0----0-0----0-0-0----0-|
|-----------------------------------------------------------------------------|
     . .    .    .    . .    . . .    .    . .    .    .    . .    . . .    .

Guitar 2:
(0:02)
|---------------------------------------------------------------------|
|---------------------------------------------------------------------|
|-10-----9---10---7-----7-------7---10-----9---10---7-----7-------7---|
|---------------------------------------------------------------------|
|---------------------------------------------------------------------|
|----0-0---0----0---0-0---0-0-0---0----0-0---0----0---0-0---0-0-0---0-|
     . .   .    .   . .   . . .   .    . .   .    .   . .   . . .   .

(0:06)
|-----------------------------------------------------------------------|
|-----------------------------------------------------------------------|
|-12-----10---12---9-----9-------9---12-----10---12---9-----9-------9---|
|-----------------------------------------------------------------------|
|----0-0----0----0---0-0---0-0-0---0----0-0----0----0---0-0---0-0-0---0-|
|-----------------------------------------------------------------------|
     . .    .    .   . .   . . .   .    . .    .    .   . .   . . .   .

(0:11)
|---------------------------------------------------------------------|
|---------------------------------------------------------------------|
|-10-----9---10---7-----7-------7---10-----9---10---7-----7-------7---|
|---------------------------------------------------------------------|
|---------------------------------------------------------------------|
|----0-0---0----0---0-0---0-0-0---0----0-0---0----0---0-0---0-0-0---0-|
     . .   .    .   . .   . . .   .    . .   .    .   . .   . . .   .

(0:15)
|-----------------------------------------------------------------------|
|-----------------------------------------------------------------------|
|-12-----10---12---9-----9-------9---12-----10---12---9-----9-------9---|
|-----------------------------------------------------------------------|
|----0-0----0----0---0-0---0-0-0---0----0-0----0----0---0-0---0-0-0---0-|
|-----------------------------------------------------------------------|
     . .    .    .   . .   . . .   .    . .    .    .   . .   . . .   .

VERSE 1 Part 1/CHORUS---
Guitar 1:
(0:20)
|-----------------------------------------------------------------------------|
|-----------------------------------------------------------------------------|
|-14-----12---14---10-----10-------10---14-----12---14---10-----10-------10---|
|----0-0----0----0----0-0----0-0-0----0----0-0----0----0----0-0----0-0-0----0-|
|-----------------------------------------------------------------------------|
|-----------------------------------------------------------------------------|
     . .    .    .    . .    . . .    .    . .    .    .    . .    . . .    .

(0:24)
|-----------------------------------------------------------------------------|
|-----------------------------------------------------------------------------|
|-----------------------------------------------------------------------------|
|-14-----12---14---10-----10-------10---14-----12---14---10-----10-------10---|
|----0-0----0----0----0-0----0-0-0----0----0-0----0----0----0-0----0-0-0----0-|
|-----------------------------------------------------------------------------|
     . .    .    .    . .    . . .    .    . .    .    .    . .    . . .    .

(0:29)
|-----------------------------------------------------------------------------|
|-----------------------------------------------------------------------------|
|-14-----12---14---10-----10-------10---14-----12---14---10-----10-------10---|
|----0-0----0----0----0-0----0-0-0----0----0-0----0----0----0-0----0-0-0----0-|
|-----------------------------------------------------------------------------|
|-----------------------------------------------------------------------------|
     . .    .    .    . .    . . .    .    . .    .    .    . .    . . .    .

(0:33)
|-----------------------------------------------------------------------------|
|-----------------------------------------------------------------------------|
|-----------------------------------------------------------------------------|
|-14-----12---14---10-----10-------10---14-----12---14---10-----10-------10---|
|----0-0----0----0----0-0----0-0-0----0----0-0----0----0----0-0----0-0-0----0-|
|-----------------------------------------------------------------------------|
     . .    .    .    . .    . . .    .    . .    .    .    . .    . . .    .

Guitar 2:
(0:20)
|---------------------------------------------------------------------|
|---------------------------------------------------------------------|
|-10-----9---10---7-----7-------7---10-----9---10---7-----7-------7---|
|---------------------------------------------------------------------|
|---------------------------------------------------------------------|
|----0-0---0----0---0-0---0-0-0---0----0-0---0----0---0-0---0-0-0---0-|
     . .   .    .   . .   . . .   .    . .   .    .   . .   . . .   .

(0:24)
|-----------------------------------------------------------------------|
|-----------------------------------------------------------------------|
|-12-----10---12---9-----9-------9---12-----10---12---9-----9-------9---|
|-----------------------------------------------------------------------|
|----0-0----0----0---0-0---0-0-0---0----0-0----0----0---0-0---0-0-0---0-|
|-----------------------------------------------------------------------|
     . .    .    .   . .   . . .   .    . .    .    .   . .   . . .   .

(0:29)
|---------------------------------------------------------------------|
|---------------------------------------------------------------------|
|-10-----9---10---7-----7-------7---10-----9---10---7-----7-------7---|
|---------------------------------------------------------------------|
|---------------------------------------------------------------------|
|----0-0---0----0---0-0---0-0-0---0----0-0---0----0---0-0---0-0-0---0-|
     . .   .    .   . .   . . .   .    . .   .    .   . .   . . .   .

(0:33)
|-----------------------------------------------------------------------|
|-----------------------------------------------------------------------|
|-12-----10---12---9-----9-------9---12-----10---12---9-----9-------9---|
|-----------------------------------------------------------------------|
|----0-0----0----0---0-0---0-0-0---0----0-0----0----0---0-0---0-0-0---0-|
|-----------------------------------------------------------------------|
     . .    .    .   . .   . . .   .    . .    .    .   . .   . . .   .

VERSE 1 Part 2---
Guitar 1:
(0:37)
|-----------------------------------------------------------------------|
|-----------------------------------------------------------------------|
|-----------------------------------------------------------------------|
|-----------------------------------------------------------------------|
|-12-----12-----12---10-----10-----10---8-----8-----8---7-----7-----7---|
|----0-0----0-0----0----0-0----0-0----0---0-0---0-0---0---0-0---0-0---0-|
     . .    . .    .    . .    . .    .   . .   . .   .   . .   . .   .

(0:42)
|-----------------------------------------------------------------------|
|-----------------------------------------------------------------------|
|-----------------------------------------------------------------------|
|-----------------------------------------------------------------------|
|-12-----12-----12---10-----10-----10---8-----8-----8---7-----7-----7---|
|----8-8----8-8----8----8-8----8-8----8---8-8---8-8---8---8-8---8-8---8-|
     . .    . .    .    . .    . .    .   . .   . .   .   . .   . .   .

(0:46)
|--------------------------------------------------------------------------|
|--------------------------------------------------------------------------|
|--------------------------------------------------------------------------|
|-10-----10-----10---8-----8-----8-----------------------------------------|
|------------------------------------12-----12-----12---10-----10-----10---|
|----0-0----0-0----0---0-0---0-0---0----0-0----0-0----0----0-0----0-0----0-|
     . .    . .    .   . .   . .   .    . .    . .    .    . .    . .    .

(0:51)
|--------------------------------------------------------------------------|
|--------------------------------------------------------------------------|
|--------------------------------------------------------------------------|
|-10-----10-----10---8-----8-----8-----------------------------------------|
|------------------------------------12-----12-----12---10-----10-----10---|
|----8-8----8-8----8---8-8---8-8---8----8-8----8-8----8----8-8----8-8----8-|
     . .    . .    .   . .   . .   .    . .    . .    .    . .    . .    .

Guitar 2:
(0:37)
|-----------------------------------------------------------------------|
|-----------------------------------------------------------------------|
|-----------------------------------------------------------------------|
|-----------------------------------------------------------------------|
|-12-----12-----12---10-----10-----10---8-----8-----8---7-----7-----7---|
|----0-0----0-0----0----0-0----0-0----0---0-0---0-0---0---0-0---0-0---0-|
     . .    . .    .    . .    . .    .   . .   . .   .   . .   . .   .

(0:42)
|-----------------------------------------------------------------------|
|-----------------------------------------------------------------------|
|-----------------------------------------------------------------------|
|-----------------------------------------------------------------------|
|-12-----12-----12---10-----10-----10---8-----8-----8---7-----7-----7---|
|----8-8----8-8----8----8-8----8-8----8---8-8---8-8---8---8-8---8-8---8-|
     . .    . .    .    . .    . .    .   . .   . .   .   . .   . .   .

(0:46)
|-----------------------------------------------------------------------|
|-----------------------------------------------------------------------|
|-----------------------------------------------------------------------|
|-----------------------------------------------------------------------|
|-12-----12-----12---10-----10-----10---8-----8-----8---7-----7-----7---|
|----0-0----0-0----0----0-0----0-0----0---0-0---0-0---0---0-0---0-0---0-|
     . .    . .    .    . .    . .    .   . .   . .   .   . .   . .   .

(0:51)
|-----------------------------------------------------------------------|
|-----------------------------------------------------------------------|
|-----------------------------------------------------------------------|
|-----------------------------------------------------------------------|
|-12-----12-----12---10-----10-----10---8-----8-----8---7-----7-----7---|
|----8-8----8-8----8----8-8----8-8----8---8-8---8-8---8---8-8---8-8---8-|
     . .    . .    .    . .    . .    .   . .   . .   .   . .   . .   .

PREVERSE---
Guitar 1:
(0:55)
|-----------------------------------------------------------------|
|-----------------------------------------------------------------|
|-----------------------------------------------------------------|
|-----------------------------------------------------------------|
|-----5-------5---5p0---0---0---0h1---1-------1---1/3---3---------|
|-0-0---0-0-0---0-----0---0---0-----0---0-0-0---0-----0---0-3-1-0-|
  . .   . . .   .     .   .   .     .   . . .   .     .   .

Guitar 2:
(0:55)
|-----------------------------------------------------------------|
|-----------------------------------------------------------------|
|-----------------------------------------------------------------|
|-0---------------0------------------\\\\\\\\\\\\\\\\\\\\\--------|
|-0---------------0---------------0--\\\\\\PICKSLIDE\\\\\\--------|
|-0---------------0---------------0--\\\\\\\\\\\\\\\\\\\\\--3-1-0-|

VERSE 1 Part 3---
Guitar 1:
(1:00)
|-----------------------------------------------------------------|
|-----------------------------------------------------------------|
|-----------------------------------------------------------------|
|-----------------------------------------------------------------|
|-----5-------5---5p0---0---0---0h1---1-------1---1/3---3---------|
|-0-0---0-0-0---0-----0---0---0-----0---0-0-0---0-----0---0-3-1-0-|
  . .   . . .   .     .   .   .     .   . . .   .     .   .

(1:04)
|-----------------------------------------------------------------|
|-----------------------------------------------------------------|
|-----------------------------------------------------------------|
|-----------------------------------------------------------------|
|-----5-------5---5p0---0---0---0h1---1-------1---1/3---3---------|
|-0-0---0-0-0---0-----0---0---0-----0---0-0-0---0-----0---0-3-1-0-|
  . .   . . .   .     .   .   .     .   . . .   .     .   .

(1:08)
|------------------------------------------------------------------|
|------------------------------------------------------------------|
|------------------------------------------------------------------|
|------------------------------------------------------------------|
|-----8-------8---8p5---5---5---5/7---7-------5---5/7---7---7/10-8-|
|-0-0---0-0-0---0-----0---0---0-----0---0-0-0---0-----0---0--------|
  . .   . . .   .     .   .   .     .   . . .   .     .   .

(1:13)
|----------------------------------------------------------------|
|----------------------------------------------------------------|
|----------------------------------------------------------------|
|----------------------------------------------------------------|
|-----8-------8---8p5---5---5---5/7---7-------5---5/7---7---7/10-|
|-0-0---0-0-0---0-----0---0---0-----0---0-0-0---0-----0---0------|
  . .   . . .   .     .   .   .     .   . . .   .     .   .

Guitar 2:
(1:00)
|-----------------------------------------------------------------|
|-----------------------------------------------------------------|
|-----------------------------------------------------------------|
|-----------------------------------------------------------------|
|-----5-------5---5p0---0---0---0h1---1-------1---1/3---3---------|
|-0-0---0-0-0---0-----0---0---0-----0---0-0-0---0-----0---0-3-1-0-|
  . .   . . .   .     .   .   .     .   . . .   .     .   .

(1:04)
|-----------------------------------------------------------------|
|-----------------------------------------------------------------|
|-----------------------------------------------------------------|
|-----------------------------------------------------------------|
|-----5-------5---5p0---0---0---0h1---1-------1---1/3---3---------|
|-0-0---0-0-0---0-----0---0---0-----0---0-0-0---0-----0---0-3-1-0-|
  . .   . . .   .     .   .   .     .   . . .   .     .   .

(1:08)
|-----------------------------------------------------------------|
|-----------------------------------------------------------------|
|-----------------------------------------------------------------|
|-----------------------------------------------------------------|
|-----5-------5---5p0---0---0---0h1---1-------1---1/3---3---3/7-5-|
|-0-0---0-0-0---0-----0---0---0-----0---0-0-0---0-----0---0-------|
  . .   . . .   .     .   .   .     .   . . .   .     .   .

(1:13)
|---------------------------------------------------------------|
|---------------------------------------------------------------|
|---------------------------------------------------------------|
|---------------------------------------------------------------|
|-----5-------5---5p0---0---0---0h1---1-------1---1/3---3---3/7-|
|-0-0---0-0-0---0-----0---0---0-----0---0-0-0---0-----0---0-----|
  . .   . . .   .     .   .   .     .   . . .   .     .   .


BREAKDOWN---
Guitar 1:
(1:18)
|----------------------------------------------|
|----------------------------------------------|
|----------------------------------------------|
|-0~~------------------------------------------|
|-0~~--0-0-0-0------0-0-0-0~--0-0-0-0----1-----|
|-0~~--0-0-0-0------0-0-0-0~--0-0-0-0------3-1-|
       . . . .      . . . .   . . . .

(1:22)
|----------------------------------------------|
|----------------------------------------------|
|----------------------------------------------|
|-0~~------------------------------------------|
|-0~~--0-0-0-0------0-0-0-0~--0-0-0-0----1-----|
|-0~~--0-0-0-0------0-0-0-0~--0-0-0-0------3-1-|
       . . . .      . . . .   . . . .

(1:27)
|---------------------------------------------------------------------------------|
|---------------------------------------------------------------------------------|
|-----14-------14---14p10---10---10---10/12---12-------10---10/12---12---12/15-14-|
|-0-0----0-0-0----0-------0----0----0-------0----0-0-0----0-------0----0----------|
|---------------------------------------------------------------------------------|
|---------------------------------------------------------------------------------|
  . .    . . .    .       .    .    .       .    . . .    .       .    .

(1:31)
|---------------------------------------------------------------------------------|
|---------------------------------------------------------------------------------|
|-----14-------14---14p10---10---10---10/12---12-------12---12p9---9---9---9/10~~-|
|-0-0----0-0-0----0-------0----0----0-------0----0-0-0----0------0---0---0--------|
|---------------------------------------------------------------------------------|
|---------------------------------------------------------------------------------|
  . .    . . .    .       .    .    .       .    . . .    .      .   .   .

Guitar 2:
(1:18)
|----------------------------------------------|
|----------------------------------------------|
|----------------------------------------------|
|-0~~------------------------------------------|
|-0~~--0-0-0-0------0-0-0-0~--0-0-0-0----1-----|
|-0~~--0-0-0-0------0-0-0-0~--0-0-0-0------3-1-|
       . . . .      . . . .   . . . .

(1:22)
|----------------------------------------------|
|----------------------------------------------|
|----------------------------------------------|
|-0~~------------------------------------------|
|-0~~--0-0-0-0------0-0-0-0~--0-0-0-0----1-----|
|-0~~--0-0-0-0------0-0-0-0~--0-0-0-0------3-1-|
       . . . .      . . . .   . . . .

(1:27)
|----------------------------------------------|
|----------------------------------------------|
|----------------------------------------------|
|-0~~------------------------------------------|
|-0~~--0-0-0-0------0-0-0-0~--0-0-0-0----0-0-0-|
|-0~~--0-0-0-0------0-0-0-0~--0-0-0-0----0-0-0-|
       . . . .      . . . .   . . . .    . . .

(1:31)
|--------------------------------------------------|
|--------------------------------------------------|
|--------------------------------------------------|
|-0~~------------------------------------------0~~-|
|-0~~--0-0-0-0------0-0-0-0~--0-0-0-0----0-0-0-0~~-|
|-0~~--0-0-0-0------0-0-0-0~--0-0-0-0----0-0-0-0~~-|
       . . . .      . . . .   . . . .    . . .

POSTBREAKDOWN---
(1:36)
Guitar 1:
|-------------|
|-------------|
|-------------|
|-------------|
|-12~--10~--8-|
|-------------|

Guitar 2:
|------------|
|------------|
|------------|
|-10~--8~--7-|
|------------|
|------------|

VERSE 2 Part 1---
Guitar 1:
(1:38)
|------------------------------------------------------------------------|
|------------------------------------------------------------------------|
|------------------------------------------------------------------------|
|------------------------------------------------------------------------|
|-----12-------12---12p8---8---8---8h10---10-------10---10p7---7---7---7-|
|-0-0----0-0-0----0------0---0---0------0----0-0-0----0------0---0---0---|
  . .    . . .    .      .   .   .      .    . . .    .      .   .   .

(1:42)
|------------------------------------------------------------------------|
|------------------------------------------------------------------------|
|------------------------------------------------------------------------|
|------------------------------------------------------------------------|
|-8---8-------8---8-----8---8---8h10---10-------8---8h10---10---10/13-12-|
|---8---8-8-8---8---8-8---8---8------8----8-8-8---8------8----8----------|
    .   . . .   .   . .   .   .      .    . . .   .      .    .

(1:47)
|----------------------------------------------------------------------------|
|----------------------------------------------------------------------------|
|----------------------------------------------------------------------------|
|----------------------------------------------------------------------------|
|-----12-------12---12p8---8---8---8/13---13-------13---13p10---10---10---10-|
|-0-0----0-0-0----0------0---0---0------0----0-0-0----0-------0----0----0----|
  . .    . . .    .      .   .   .      .    . . .    .       .    .    .

(1:51)
|-------------------------------------------------------------------------|
|-------------------------------------------------------------------------|
|-------------------------------------------------------------------------|
|-------------------------------------------------------------------------|
|-12---12-------12---12p8---8---8---8h10---10-------10---10p7---7---7---7-|
|----8----8-8-8----8------8---8---8------7----7-7-7----7------7---7---7---|
     .    . . .    .      .   .   .      .    . . .    .      .   .   .

Guitar 2:
(1:38)
|-----------------------------------------------------------------|
|-----------------------------------------------------------------|
|-----------------------------------------------------------------|
|-----------------------------------------------------------------|
|-----8-------8---8p5---5---5---5/7---7-------7---7p4---4---4---4-|
|-0-0---0-0-0---0-----0---0---0-----0---0-0-0---0-----0---0---0---|
  . .   . . .   .     .   .   .     .   . . .   .     .   .   .

(1:42)
|------------------------------------------------------------------|
|------------------------------------------------------------------|
|------------------------------------------------------------------|
|------------------------------------------------------------------|
|-5---5-------5---5-----5---5---5h7---7-------5---5h7---7---7/10-8-|
|---8---8-8-8---8---8-8---8---8-----8---8-8-8---8-----8---8--------|
    .   . . .   .   . .   .   .     .   . . .   .     .   .

(1:47)
|---------------------------------------------------------------------|
|---------------------------------------------------------------------|
|---------------------------------------------------------------------|
|---------------------------------------------------------------------|
|-----8-------8---8p5---5---5---5/10---10-------10---10p7---7---7---7-|
|-0-0---0-0-0---0-----0---0---0------0----0-0-0----0------0---0---0---|
  . .   . . .   .     .   .   .      .    . . .    .      .   .   .

(1:51)
|------------------------------------------------------------------|
|------------------------------------------------------------------|
|------------------------------------------------------------------|
|------------------------------------------------------------------|
|-8---8-------8---8p5---5---5---5h7---7-------7---7p4---4---4---4/-|
|---8---8-8-8---8-----8---8---8-----7---7-7-7---7-----7---7---7----|
    .   . . .   .     .   .   .     .   . . .   .     .   .   .


BRIDGE---
Guitar 1:
(1:57)
|---------------------------------------------------------------------|
|---------------------------------------------------------------------|
|-10~~~~--------15--10~~~~------10-14--10~~~~------15-15~~--/17-17~~~-|
|--x~~~~---------x---x~~~~-------x--x---x~~~~-------x--x~~--/-x--x~~~-|
|--8~~~~--------13---8~~~~-------8-12---8~~~~------13-13~~--/15-15~~~-|
|---------------------------------------------------------------------|

Guitar 2:
(1:57)
|---------------------------------------------------------------------|
|---------------------------------------------------------------------|
|---------------------------------------------------------------------|
|-7~~~~~~~~------8~~~~~~~~---------7~~~~~~~~-----------8~~~~~~~~------|
|-8~~~~~~~~------8~~~~~~~~---------8~~~~~~~~-----------8~~~~~~~~------|
|-7~~~~~~~~------8~~~~~~~~---------7~~~~~~~~-----------8~~~~~~~~------|

REPEAT INTRO/CHORUS---
(2:06-2:24)

BREAK---
Both guitars:
(2:24)
|------------------------------------|
|------------------------------------|
|------------------------------------|
|------------------------------------|
|-12-----10---12---------------------|
|----0-0----0----0-0-0-0-0-0-0-0-0-0-|
     . .    .    .   . .   .   .   .

VERSE 3---
(2:26)
|------------------------------------|
|------------------------------------|
|------------------------------------|
|------------------------------------|
|-12-----10---12---------------------|
|----0-0----0----0-0-0-0-0-0-0-0-0-0-|
     . .    .    .   . .   .   .   .

(2:29)
|-------------------------------------------------------------------|
|-------------------------------------------------------------------|
|-------------------------------------------------------------------|
|-------------------------------------------------------------------|
|-10-----8---10---------------------8-----7---8---------------------|
|----8-8---8----8-8-8-8-8-8-8-8-8-8---7-7---7---7-7-7-7-7-7-7-7-7-7-|
     . .   .    .   . .   .   .   .   . .   .   .   . .   .   .   .

(2:33)
|-----------------------------------------------------------------------|
|-----------------------------------------------------------------------|
|-----------------------------------------------------------------------|
|-----------------------------------------------------------------------|
|-12-----10---12---------------------12-----10---12---------------------|
|----0-0----0----0-0-0-0-0-0-0-0-0-0----0-0----0----0-0-0-0-0-0-0-0-0-0-|
     . .    .    .   . .   .   .   .    . .    .    .   . .   .   .   .

(2:37)
|-------------------------------------------------------------------|
|-------------------------------------------------------------------|
|-------------------------------------------------------------------|
|-------------------------------------------------------------------|
|-10-----8---10---------------------8-----7---8---------------------|
|----8-8---8----8-8-8-8-8-8-8-8-8-8---7-7---7---7-7-7-7-7-7-7-7-7-7-|
     . .   .    .   . .   .   .   .   . .   .   .   . .   .   .   .

PREBREAKDOWN---
Both guitars:
(2:42)
|----------------------------------------|
|------------------11~~~~~~~-------------|
|-7~~~~~~~~--------x~~~~~~~~-------------|
|-0~~~~~~~~--------8~~~~~~~~-------------|
|-0~~~~~~~~--------8~~~~~~~~-------------|
|-0~~~~~~~~--------8~~~~~~~~------12\\\\-|

BREAKDOWN---
Both guitars:
(2:47)
|---------------------------------------|
|---------------------------------------|
|---------------------------------------|
|---------------------------------------|
|-000----000----0--000----000----0--000-|
|-000----000----0--000----000----0--000-|
  ...    ...    .  ...    ...    .  ...

(2:51)
|---------------------------------------|
|---------------------------------------|
|---------------------------------------|
|---------------------------------------|
|-000----000----0--000----000----0--000-|
|-000----000----0--000----000----0--000-|
  ...    ...    .  ...    ...    .  ...

(2:56)
|-----------------------------------------|
|-----------------------------------------|
|-----------------------------------------|
|-----------------------------------------|
|-000~~--000~~--0~-000~~--000~~--0~-000~~-|
|-000~~--000~~--0~-000~~--000~~--0~-000~~-|
  ...    ...    .  ...    ...    .  ...

(3:00)
|-----------------------------------------|
|-----------------------------------------|
|-----------------------------------------|
|-----------------------------------------|
|-000~~--000~~--0~-000~~--000~~--0~-000~~-|
|-000~~--000~~--0~-000~~--000~~--0~-000~~-|
  ...    ...    .  ...    ...    .  ...

(3:05)
|------------|
|------------|
|------------|
|------------|
|-000----000-|
|-000----000-|
  ...    ...


OUTRO---
Both guitars:
(3:06)
|-----------------------------------------------|
|-----------------------------------------------|
|-----------------------------------------------|
|-----------------------------------------------|
|---------------0~~-------------------------0~~-|
|-0~~--0-0~~--0-0~~--0-0~~--0-0~~--0-0~~--0-0~~-|
                .                           .

(3:11)
|--------------------------|
|--------------------------|
|--------------------------|
|--------------------------|
|---------------0~~--------|
|-0~~--0-0~~--0-0~~--0-0~~-|
                .

(3:14)
|--------------------------------------------------|
|--------------------------------------------------|
|--------------------------------------------------|
|--------------------------------------------------|
|-----------------0~~--------------------0~~-------|
|-0-0~~--0-0~~--0-0~~--0-0~~~~--0-0~~--0-0~~-0-0~~-|
                  .                      .

(3:18)
|------------------------------------------------|
|------------------------------------------------|
|------------------------------------------------|
|------------------------------------------------|
|-----------------0~~--------------------0~~-----|
|-0-0~~--0-0~~--0-0~~--0-0~~~~--0-0~~--0-0~~-0-0-|
                  .                      .

            
            
Suggest correction
Creating personal tab
Creating personal tab
You can edit any tab online and save it as your Personal.

You can edit, replace or remove any tab part or add personal notes – all changes will be seen only by you.

Personal tabs can be accessed anytime from any device, even offline.
Learn more »
Give kudos to tab author, rate the tab!
1 2 3 4 5
comments
print report bad tab
guest
You may want to rate the tab now too:
select rating
Wanna post a correction for this tab? Suggest correction