Oops, an error
Loading. Please wait.

Dont Ever tab

version 1
version 1

Whole song

20,404 views 27 this week
3 commentsread comments
1 2 3 4 5
x 7
add to favorites
×
Save as Personal and add changes to this tab that will be seen only by you. Learn more ›
×
You can save this tab as Personal to edit and correct it or add notes. All changes will be seen only by you. Learn more »
launch autoscroll
font size
0
reset
how to read this tab
guitar tuner
edit
Autoscroll
slow
fast
+/-
esc
set tempo
stop
Author
Song: Don't Ever
Album: The Sound of White
Artist: Missy Higgins

       Gadd        A        D          Gadd
E-|------------------------------2/3---------------|
B-|------3---------2-----------3-----------3-------|
G-|----0---0-----2---2-------2-----------0---0-----|
D-|-----------------------0------------------------|
A-|------------0-------0---------------------------|
E-|--3-------3------------------------3---------3--|


verse 1
Gadd			A
Let's take the train to anywhere
D			Gadd
I wanna feel the wind in my hair with you.
Gadd			A
Let's tell them all, that soon they'll know
D				Gadd
how very wrong they were to think we'd never go,
Gadd	A	D	Gadd
and if you tell me yours I'll tell you mine
Gadd	A	D	Gadd
and we will clean the cobwebs out of one anothers minds.

Chorus
Gadd		A	D	Gadd
Don't ever say you've tried to leave me in this life
Gadd			A	 	D
Don't ever say you've tried for the last time.


Verse 2
We'll get a house where the trees hang low and pretty little flowers
on our window sill will grow
We'll make friends with the milk man
and the butcher Mr. Timms
will give us discounts when he can,
and if you tell me yours I'll tell you mine,
and we will clean the cobwebs out of one anothers minds.


Chorus
Don't ever say you've tried to leave me in this life
Don't ever say you've tried for the last time

Bridge
Gadd	D	Gadd	D	Gadd	D	Bm	A	Gadd (and back into Gadd A D Gadd)
LA DI DA DI DA...


Don't ever say you've tried to leave me in this life
Don't ever say you've tried to leave me in this life
Don't ever say you've tried for the last time...

__________________________________

Chords
Gadd     A	D
3	0	x
2	0	0
0	2	0
0	2	2
3	2	3
3	0	2

Any corrections email me jessy84@gmail.com

            
            
Suggest correction
Creating personal tab
Creating personal tab
You can edit any tab online and save it as your Personal.

You can edit, replace or remove any tab part or add personal notes – all changes will be seen only by you.

Personal tabs can be accessed anytime from any device, even offline.
Learn more »
comments
print report bad tab
3 comments total.
0 reply
Bonkafonk 10 Sep 22, 2010 09:08 AM

Gadd A D Gadd
E-|------------------------------2/3-2-------------|
B-|------3---------2-----------3------3---- 3---3--|
G-|----0---0-----2---2------------------- 0---0----| repeat
D-|-----------------------0------------------------|
A-|------------0-------0---------------------------|
E-|--3-------3-------------------------3-----------|

Hey there! Nice work! I think the intro is more like this though! Just a few changes at the end. Then the rest of the song is fairly similar with a few slight changes. I havent tried to tab that yet though.

What do you think?

0 reply
Bonkafonk 10 Sep 22, 2010 09:09 AM

September 22 2010, 01:08 pm by Bonkafonk |
Gadd A D Gadd
E-|------------------------------2/3-2-------------|
B-|------3---------2-----------3------3---- 3---3--|
G-|----0---0-----2---2------------------- 0---0----| repeat
D-|-----------------------0------------------------|
A-|------------0-------0---------------------------|
E-|--3-------3-------------------------3-----------|

Hey there! Nice work! I think the intro is more like this though! Just a few changes at the end. Then the rest of the song is fairly similar with a few slight changes. I havent tried to tab that yet though.

What do you think?

0 reply
Bonkafonk 10 Sep 22, 2010 09:10 AM

Oh woops I didnt mean to post that twice! SPAM!

guest
You may want to rate the tab now too:
select rating
Wanna post a correction for this tab? Suggest correction