Oops, an error
Loading. Please wait.

Where I Stood bass

2,115 views 1 this week
no commentswrite comment
1 2 3 4 5
3 more votes to show rating
add to favorites
×
Save as Personal and add changes to this tab that will be seen only by you. Learn more ›
×
You can save this tab as Personal to edit and correct it or add notes. All changes will be seen only by you. Learn more »
launch autoscroll
font size
0
reset
guitar tuner
edit
Autoscroll
slow
fast
+/-
esc
set tempo
stop
Verse 1:  

Bm     A              E      
I dont know what I've done  
G|----------------|
D|------REST------|
A|----------------|
E|----------------|

        Bm   A         E    
Or if I like what I've begun  
G|----------------|
D|------REST------|
A|----------------|
E|----------------|

Bm            A          E  
But something told me to run  
G|----------------|
D|------REST------|
A|----------------|
E|----------------|

          F#m      E       D    A   E 
And honey you know me it's all or none 
G|----------------|
D|------REST------|
A|----------------|
E|----------------|

Bm         A            E  
There were sounds in my head  
G|----------------|
D|----------------|
A|----------------|
E|-7--5--0--------|

       Bm  A      E  
Little voices whispering
G|----------------|
D|----------------|
A|----------------|
E|-7--5--0--------|
  
Bm            A                  E  
That I should go and this should end  
G|----------------|
D|----------------|
A|----------------|
E|-7--5--0--------|

F#m      E       D    A   E 
Oh and I found myself listening  
G|----------------|
D|----------------|
A|-9--7--5-----7--|
E|----------5-----|

       D                     F#m      E  
Cos I dont know who I am who I am without you  
G|---------------------|
D|---------------------|
A|-5-0h5-5-5/9---9-7---|
E|-------------9-----9-|

D     A              E  
All I know is that I should  
G|---------------------|
D|---------------------|
A|-5-5---7777777777777-|
E|----5-5--------------|

D                          F#m           E  
And I dont know if I could stand another hand upon you  
G|---------------------|
D|---------------------|
A|-5-0h5-5-5/9---9-7---|
E|-------------9-----9-|

D     A              E  
All I know is that I should
G|---------------------|
D|---------------------|
A|-5-5---7777777777777-|
E|----5-5--------------| 

Bm            A        F#m         E     
Cos she will love you more then I could  
G|----------------|
D|----------------|
A|-------9--5-----|
E|-7--5-----------|

D       A        E             A  
She who dares to stand where I stood       
G|----------------|
D|----------------|
A|-5-----7--------|
E|----5-----5-----|

G|----------------|
D|------REST------|
A|----------------|
E|----------------|

G|----------------|
D|------REST------|
A|----------------|
E|----------------|

G|----------------|
D|----------------|
A|----------------|
E|----------10/14~|

Verse 2:  
Bm            A                  E  
See I thought love was black and white  
G|----------------|
D|----------------|
A|----14----------|
E|~~------12------|

            Bm  A           E      
That it was wrong or it was right  
G|----------------|
D|-------14/16\14-|
A|-14-12----------|
E|----------------|

Bm           A                 E  
But you aint leaving without a fight  
G|----------------|
D|----------------|
A|----------------|
E|-7--5--0--------|

F#m      E       D    A   E 
And I think I am just as torn inside  
G|----------------|
D|----------------|
A|-9--7--5-----7--|
E|----------5-----|

       D                     F#m      E  
Cos I dont know who I am who I am without you  
G|---------------------|
D|---------------------|
A|-5-0h5-5-5/9---9-7---|
E|-------------9-----9-|

D     A              E  
All I know is that I should  
G|---------------------|
D|---------------------|
A|-5-5---7777777777777-|
E|----5-5--------------| 

D          A               F#m           E  
And I dont know if I could stand another hand upon you  
G|---------------------|
D|---------------------|
A|-5-0h5-5-5/9---9-7---|
E|-------------9-----9-|

D     A              E  
All I know is that I should  
G|---------------------|
D|---------------------|
A|-5-5---7777777777777-|
E|----5-5--------------|

Bm            A        F#m         E     
Cos she will love you more then I could  
G|----------------|
D|----------------|
A|-------9--7-----|
E|-7--5-----------|

D       A        E             A  
She who dares to stand where I stood       
G|----------------|
D|----------------|
A|-5-----7--------|
E|----5-----5-----|

Bridge:  

      Bm            D                  F#m                E  
And I won't be far from where you are if ever you should call  
G|----------------|
D|----------------|
A|----5-----------|
E|-7-----2--0-----|

      Bm            D                  F#m                E   
You meant more to me then anyone I have loved at all  
G|----------------|
D|----------------|
A|----5-----------|
E|-7-----2--0-----|

        D                              F#m             E 
But you taught me how to trust myself and so I say to you  
G|----------------|
D|----------------|
A|-5--9--7--------|
E|----------------|

       Bm              E  
This is what I have to do  
G|----------------|
D|----------------|
A|----------10/14-|
E|-7--------------|


       D                     F#m      E  
Cos I dont know who I am who I am without you  
G|----------------|
D|------REST------|
A|----------------|
E|----------------|

D     A              E  
All I know is that I should  
G|----------------|
D|-----REST-------|
A|----------------|
E|----------------|

D                         F#m           E  
And I dont know if I could stand another hand upon you  
G|----------------|
D|----------------|
A|-5--9--7--------|
E|----------------|

D     A              E  
All I know is that I should  
G|----------------|
D|----------------|
A|-5-----7--------|
E|----5-----------|

Bm            A        F#m         E     
Cos she will love you more then I could  
G|----------------|
D|----------------|
A|----5--9--7-----|
E|-7--------------|

D       A        E             A  
She who dares to stand where I stood  
G|----------------|
D|----------------|
A|-5-----7--------|
E|----5-----5-----|

    D       A        E             A  
Oh, She who dares to stand where I stood 
G|----------------|
D|----------------|
A|-5-----7--------|
E|----5-----5-----|

            
            
Suggest correction
Creating personal tab
Creating personal tab
You can edit any tab online and save it as your Personal.

You can edit, replace or remove any tab part or add personal notes – all changes will be seen only by you.

Personal tabs can be accessed anytime from any device, even offline.
Learn more »
Give kudos to tab author, rate the tab!
1 2 3 4 5
comments
print report bad tab
guest
Wanna post a correction for this tab? Suggest correction