Oops, an error
Loading. Please wait.

My Soul Longs For You tab

version 2
version 2

Whole song

6,008 views 6 this week
no commentswrite comment
1 2 3 4 5
x 3
add to favorites
×
Save as Personal and add changes to this tab that will be seen only by you. Learn more ›
×
You can save this tab as Personal to edit and correct it or add notes. All changes will be seen only by you. Learn more »
launch autoscroll
font size
0
reset
how to read this tab
guitar tuner
edit
Autoscroll
slow
fast
+/-
esc
set tempo
stop
I give God all the glory
Key: Bm

[Chorus]
Bm, D


[Main riff]

e|------------------------------------------------------------------------|
B|------------------------------------------------------------------------|
G|-------7-7-7-7-6-4-4-----7-7-7-7-6-4-4----------------------------------|
D|--4-4----------------4-4------------------------------------------------|
A|------------------------------------------------------------------------|
E|------------------------------------------------------------------------|

e|------------------------------------------------------------------------|
B|------------------------------------------------------------------------|
G|------------------------------------------------------------------------|
D|-4-4-7-7-7-7-5-4-4---4-4-7-7-7-7-5-4s2s4--------------------------------|
A|------------------------------------------------------------------------|
E|------------------------------------------------------------------------|


[Chorus 2]
 something like this
e|------------------------------------------------------------------------|
B|------------------------------------------------------------------------|
G|-----------7-9-------------9-11-----------------------------------------|
D|--4-4s5s7-9------4-4s5s9-11---------------------------------------------|
A|------------------------------------------------------------------------|
E|------------------------------------------------------------------------|


[Solo]

e|-17-17-17----------------------------15-15-14-14-----------------------|
B|----------15-15-15-17-17-17--------------------------------------------|
G|----------------------------14-14-14-----------------------------------| x3
D|-----------------------------------------------------------------------|
A|-----------------------------------------------------------------------|
E|-----------------------------------------------------------------------|

then do it again and end with a bend and release on the 14
e|-17-17-17--------------------------------------------------------------|
B|----------15-15-15-17-17-17----------14b15r14--------------------------|
G|----------------------------14-14-14-----------------------------------|
D|-----------------------------------------------------------------------|
A|-----------------------------------------------------------------------|
E|-----------------------------------------------------------------------|


********************

| s  Slide
| b  Bend
| r  Release bend

********************

            
            
Suggest correction
Creating personal tab
Creating personal tab
You can edit any tab online and save it as your Personal.

You can edit, replace or remove any tab part or add personal notes – all changes will be seen only by you.

Personal tabs can be accessed anytime from any device, even offline.
Learn more »
Give kudos to tab author, rate the tab!
1 2 3 4 5
comments
print report bad tab
guest
You may want to rate the tab now too:
select rating
Wanna post a correction for this tab? Suggest correction