Oops, an error
Loading. Please wait.

You Wont Relent tab

version 2
version 2

Whole song

Interactive

30,810 views 33 this week
2 commentsread comments
1 2 3 4 5
x 4
add to favorites
×
Save as Personal and add changes to this tab that will be seen only by you. Learn more ›
×
You can save this tab as Personal to edit and correct it or add notes. All changes will be seen only by you. Learn more »
launch autoscroll
font size
0
reset
how to read this tab
guitar tuner
edit
Autoscroll
slow
fast
+/-
esc
set tempo
stop
Author
"I personally strum the chorus and play the tab for the rest of the song,
 but it's up to how you want to try it. Hope this helps some"

YOU WON'T RELENT


  [Intro]
e|-----------------------------------------------------------------------------|
B|----------4-5-4--------------------------------------------------------------|
G|--------6-------6-4----------------4-6---------------------------------------|
D|------6--------------------------7-------------------3s6-4-2-----------------|
A|----4--------------------------7-------------------2----------2--------------|
E|-----------------------------5-------------------0---------------------------|

[Verse]

       You won't relent until you have it all. My heart is yours.
e|-----------------------------------------------------------------------------|
B|----------4-5-4--------------------------------------------------------------|
G|--------6-------6-4----------------4-6---------------------------------------|
D|------6--------------------------7-------------------3s6-4-2-----------------|
A|----4--------------------------7-------------------2----------2--------------|
E|-----------------------------5-------------------0---------------------------|

       You won't relent until you have it all. My heart is yours.
e|-----------------------------------------------------------------------------|
B|----------4-5-4--------------------------------------------------------------|
G|--------6-------6-4----------------4-6---------------------------------------|
D|------6--------------------------7-------------------3s6-4-2-----------------|
A|----4--------------------------7-------------------2----------2--------------|
E|-----------------------------5-------------------0---------------------------|

     I'll set you as a seal upon my heart. As a seal upon my arm.
e|-----------------------------------------------------------------------------|
B|----------4-5-4--------------------------------------------------------------|
G|--------6-------6-4----------------4-6---------------------------------------|
D|------6--------------------------7-------------------3s6-4-2-----------------|
A|----4--------------------------7-------------------2----------2--------------|
E|-----------------------------5-------------------0---------------------------|

  For there is love that is as strong as death. Jealousy demanding as the
e|-----------------------------------------------------------------------------|
B|----------4-5-4--------------------------------------------------------------|
G|--------6-------6-4----------------4-6---------------------------------------|
D|------6--------------------------7-------------------3s6-4-2-----------------|
A|----4--------------------------7-------------------2----------2--------------|
E|-----------------------------5-------------------0---------------------------|

     grave. Many waters cannot quench this love.
e|-----------------------------------------------------------------------------|
B|----------4-5-4--------------------------------------------------------------|
G|--------6-------6-4----------------4-6---------------------------------------|
D|------6--------------------------7-------------------3s6-4-2-----------------|
A|----4--------------------------7-------------------2----------2--------------|
E|-----------------------------5-------------------0---------------------------|


[Chorus]

C#m         A              E
Come be the fire inside of me.

            F#m           C#m
Come be the flame upon my heart.

            A              E
come be the fire inside of me.

      F#m           C#m
Until You and I are one.


  [Outro]
e|-----------------------------------------------------------------------------|
B|----------4-5-4--------------------------------------------------------------|
G|--------6-------6-4----------------4-6---------------------------------------|
D|------6--------------------------7-------------------3s6-4-2-----------------|
A|----4--------------------------7-------------------2----------2--------------|
E|-----------------------------5-------------------0---------------------------|



************************************

| s - Slide

************************************

            
            
Suggest correction
Creating personal tab
Creating personal tab
You can edit any tab online and save it as your Personal.

You can edit, replace or remove any tab part or add personal notes – all changes will be seen only by you.

Personal tabs can be accessed anytime from any device, even offline.
Learn more »
comments
print report bad tab
2 comments total.
0 reply
slayerofguita 10 Feb 26, 2017 07:24 PM, edited on February 27 2017, 12:37 am

You can play A minor for second chord of picking, you just play the second fret on the B string instead of the first fret(C#), its easier. Also I could be wrong but the chords that sound right to me are B, G, D, A I usually listen to the Jesus Culture version though, try it, the chords you put don't sound as cohesive. Thanks for the tab, I needed a reminder to play it again. Could also be Cm, G(best to play bar chord form to transition quickly between the 4), D# Suspended 2nd, A# Major. The second set is most likely because its like power chords and can be played well with distortion and for a long period of time effortlessly, its a long song that at time can be extended for worship.

0 reply
slayerofguita 10 Feb 26, 2017 07:44 PM

|--3--|--4--|--6--|--6--|
|--4--|--4--|--6--|--6--|
|--5--|--5--|--8--|--7--|
|--5--|--6--|--8--|--8--|
|--3--|--6--|--6--|--8--|
|-----|--4--|-----|--6--|
Cm G#M Dsus2 A#M

guest
You may want to rate the tab now too:
select rating
Wanna post a correction for this tab? Suggest correction