Oops, an error
Loading. Please wait.
We have Chord Pro version of No Fixed Abode.
It's the closest thing you can get to the original song and it has interactive parts. Check out the tab »
×

No Fixed Abode tab

496 views 9 this week
no commentswrite comment
1 2 3 4 5
3 more votes to show rating
add to favorites
×
Save as Personal and add changes to this tab that will be seen only by you. Learn more ›
×
You can save this tab as Personal to edit and correct it or add notes. All changes will be seen only by you. Learn more »
launch autoscroll
font size
0
reset
how to read this tab
guitar tuner
edit
Autoscroll
slow
fast
+/-
esc
set tempo
stop
Author
Difficulty
About this tab version
Tabbed based on his official video. Was this info helpful? Yes No
[Intro]

    C#m       G#m       A            E
e|----3---x---4--4--x--------5---x---0--0--x----0----------------------------|
B|----4---x---4--4--x--------5---x---0--0--x----0----------------------------|
G|----5---x---4--4--x--------6---x---1--1--x----1----------------------------| 
D|--------x---------x------------x---------x---------------------------------|
A|--4-----x---------x------------x---------x---------------------------------|
E|--------x---4-----x---4--5-----x---0-----x---------------------------------|

[Verse]

    C#m       G#m       A            E
e|----3---x---4--4--x--------5---x---0--0--x----0----------------------------|
B|----4---x---4--4--x--------5---x---0--0--x----0----------------------------|
G|----5---x---4--4--x--------6---x---1--1--x----1----------------------------| 
D|--------x---------x------------x---------x---------------------------------| 
A|--4-----x---------x------------x---------x---------------------------------|
E|--------x---4-----x---4--5-----x---0-----x---------------------------------|(x4)

[Pre-Chorus]

    C#m       G#m       A            E
e|----3---x---4--4--x--------5---x---0--0--x----0----------------------------|
B|----4---x---4--4--x--------5---x---0--0--x----0----------------------------|
G|----5---x---4--4--x--------6---x---1--1--x----1----------------------------| 
D|--------x---------x------------x---------x---------------------------------| 
A|--4-----x---------x------------x---------x---------------------------------|
E|--------x---4-----x---4--5-----x---0-----x---------------------------------|(x4)


[Chorus]
     B        C#m         A          E
e|----7---x---4--4--x--------5---x---0--0--x----0----------------------------|
B|----7---x---5--5--x--------5---x---0--0--x----0----------------------------|
G|----8---x---6--6--x--------6---x---1--1--x----1----------------------------| 
D|--------x---------x------------x---------x---------------------------------|
A|--------x---4-----x------------x---------x---------------------------------|
E|--7-----x---------x---4--5-----x---0-----x---------------------------------|(x4)


     F#m
e|---2--2--x----2---2-2------------------------------------------------------|
B|---2--2--x----2---2-2------------------------------------------------------|
G|---2--2--x----2---2-2------------------------------------------------------| 
D|---------x-----------------------------------------------------------------|
A|---------x-----------------------------------------------------------------|
E|---2-----x----2-----2------------------------------------------------------|

    C#m       G#m       A            E
e|----3---x---4--4--x--------5---x---0--0--x----0----------------------------|
B|----4---x---4--4--x--------5---x---0--0--x----0----------------------------|
G|----5---x---4--4--x--------6---x---1--1--x----1----------------------------| 
D|--------x---------x------------x---------x---------------------------------| 
A|--4-----x---------x------------x---------x---------------------------------|
E|--------x---4-----x---4--5-----x---0-----x---------------------------------|(x2)


[Verse 2]

    C#m       G#m       A            E
e|----3---x---4--4--x--------5---x---0--0--x----0----------------------------|
B|----4---x---4--4--x--------5---x---0--0--x----0----------------------------|
G|----5---x---4--4--x--------6---x---1--1--x----1----------------------------| 
D|--------x---------x------------x---------x---------------------------------| 
A|--4-----x---------x------------x---------x---------------------------------|
E|--------x---4-----x---4--5-----x---0-----x---------------------------------|(x4)

[Chorus]
     B        C#m         A          E
e|----7---x---4--4--x--------5---x---0--0--x----0----------------------------|
B|----7---x---5--5--x--------5---x---0--0--x----0----------------------------|
G|----8---x---6--6--x--------6---x---1--1--x----1----------------------------| 
D|--------x---------x------------x---------x---------------------------------|
A|--------x---4-----x------------x---------x---------------------------------|
E|--7-----x---------x---4--5-----x---0-----x---------------------------------|(x4)


     F#m
e|---2--2--x----2---2-2------------------------------------------------------|
B|---2--2--x----2---2-2------------------------------------------------------|
G|---2--2--x----2---2-2------------------------------------------------------| 
D|---------x-----------------------------------------------------------------|
A|---------x-----------------------------------------------------------------|
E|---2-----x----2-----2------------------------------------------------------|

    C#m       G#m       A            E
e|----3---x---4--4--x--------5---x---0--0--x----0----------------------------|
B|----4---x---4--4--x--------5---x---0--0--x----0----------------------------|
G|----5---x---4--4--x--------6---x---1--1--x----1----------------------------| 
D|--------x---------x------------x---------x---------------------------------| 
A|--4-----x---------x------------x---------x---------------------------------|
E|--------x---4-----x---4--5-----x---0-----x---------------------------------|(x2)

[Instrumental]

    C#m       G#m       A            E
e|----3---x---4--4--x--------5---x---0--0--x----0----------------------------|
B|----4---x---4--4--x--------5---x---0--0--x----0----------------------------|
G|----5---x---4--4--x--------6---x---1--1--x----1----------------------------| 
D|--------x---------x------------x---------x---------------------------------| 
A|--4-----x---------x------------x---------x---------------------------------|
E|--------x---4-----x---4--5-----x---0-----x---------------------------------|(x4)


[Chorus]
     B        C#m         A          E
e|----7---x---4--4--x--------5---x---0--0--x----0----------------------------|
B|----7---x---5--5--x--------5---x---0--0--x----0----------------------------|
G|----8---x---6--6--x--------6---x---1--1--x----1----------------------------| 
D|--------x---------x------------x---------x---------------------------------|
A|--------x---4-----x------------x---------x---------------------------------|
E|--7-----x---------x---4--5-----x---0-----x---------------------------------|(x4)


     F#m
e|---2--2--x----2---2-2------------------------------------------------------|
B|---2--2--x----2---2-2------------------------------------------------------|
G|---2--2--x----2---2-2------------------------------------------------------| 
D|---------x-----------------------------------------------------------------|
A|---------x-----------------------------------------------------------------|
E|---2-----x----2-----2------------------------------------------------------|

    C#m       G#m       A            E
e|----3---x---4--4--x--------5---x---0--0--x----0----------------------------|
B|----4---x---4--4--x--------5---x---0--0--x----0----------------------------|
G|----5---x---4--4--x--------6---x---1--1--x----1----------------------------| 
D|--------x---------x------------x---------x---------------------------------| 
A|--4-----x---------x------------x---------x---------------------------------|
E|--------x---4-----x---4--5-----x---0-----x---------------------------------|(x2)


Lyrics

[Intro]

[Verse]

Is there anyone else but me?
Walked the plank and kicked my feet
And I'm drowning here
Drowning in the words you speak
Drowning in this drink, I've peaked
And it's downhill from here

[Pre-Chorus]

Need to get out of here
These 4 walls are turning me crazy
I think I might lose it
But if the door is closed and the water's rising
Your the missing puzzle piece to solve this

[Chorus]

Saturated
I can't breathe
Overhead
I can't see
Stranded in these waters alone
Look around and all I see
Is empty space, it's misty
Searching for a way to get home
But where is home
No fixed abode

[Verse 2]

Crazy times that we live in
Dollar and the pound make the world go round
And we still choose to accept it
I'm not waiting for another day
Well I can't, I can't
We're just looking for the chance to say
That we all, we all feel this way

[Chorus]

Like we're
Saturated
We can't breathe
Overhead
We can't see
Stranded in these waters alone
Look around and all we see
Is empty space, it's misty
Searching for a way to get home
But where is home
No fixed abode

[Instrumental]

[Chorus]

Like we're
Saturated
We can't breathe
Overhead
We can't see
Stranded in these waters alone
Look around and all we see
Is empty space, it's misty
Searching for a way to get home
But where is home
No fixed abode


************************************

| x   Dead note

************************************

            
            
Suggest correction
Creating personal tab
Creating personal tab
You can edit any tab online and save it as your Personal.

You can edit, replace or remove any tab part or add personal notes – all changes will be seen only by you.

Personal tabs can be accessed anytime from any device, even offline.
Learn more »
Give kudos to tab author, rate the tab!
1 2 3 4 5
comments
print report bad tab
guest
You may want to rate the tab now too:
select rating
Wanna post a correction for this tab? Suggest correction