Oops, an error
Loading. Please wait.

Lets Make This Last Forever tab

version 2
version 2

Whole song

Interactive

7,892 views 1 this week
no commentswrite comment
1 2 3 4 5
x 3
add to favorites
×
Save as Personal and add changes to this tab that will be seen only by you. Learn more ›
×
You can save this tab as Personal to edit and correct it or add notes. All changes will be seen only by you. Learn more »
launch autoscroll
font size
0
reset
how to read this tab
guitar tuner
edit
Autoscroll
slow
fast
+/-
esc
set tempo
stop
Author
Difficulty
Mitchel Musso - Let's Make This Last 4Ever
------------------------------------------

Tuning: EADGBe



### INTRO ### 00:00 ###
e|-------------------|---------------------------------|---------------------------------|
B|-------------------|---------------------------------|---------------------------------|
G|--[-I-Need-A-]-----|--[-A-Guitar-]---------------77--|--[--And-A---]---------------77--|
D|--[-Kickdrum-]-----|--[----Now---]---77--99--55--77--|--[-Bassline-]---77--99--55--77--|
A|-------------------|-----------------77--99--55--55--|-----------------77--99--55--55--|
E|-------------------|-----------------55--77--33------|-----------------55--77--33------|


### PRE-CHORUS ### 00:11 ###
e|--------------------|--------------------|
B|--------------------|--------------------|
G|--------------------|--------------------|
D|--2-2-2-2-2-2-2-22--|--5-5-5-5-55555555--|
A|--2-2-2-2-2-2-2-22--|--5-5-5-5-55555555--|
E|--0-0-0-0-0-0-0-00--|--3-3-3-3-33333333--|


### CHORUS ### 00:17 ###
e|---------------------------------------|    |-------------------------------------|
B|---------------------------------------|    |-------------------------------------|
G|--44444444----------77777777-77777777--| 3x |-------------------------------------|
D|--44444444-55555555-77777777-77777777--|    |--2222222222222222-5555555555555555--|
A|--22222222-55555555-55555555-44444444--|    |--2222222222222222-5555555555555555--|
E|-----------33333333--------------------|    |--0000000000000000-3333333333333333--|


### VERSE ### 00:43 ###
e|------------------|
B|------------------|
G|--------------77--| 4x
D|--77--99--55--77--|
A|--77--99--55--55--|
E|--55--77--33------|



### PRE-CHORUS ### 00:56 ###

### CHORUS ### 01:02 ### (1x the whole thing, then 1.5x the first part)



### INTERLUDE ### 01:38 ###
e|---------------------------------------|--------------------------------------|
B|---------------------------------------|--------------------------------------|
G|---------------------------------------|--------------------------------------|
D|--------------------77777777-77777777--|--------------------------------------|
A|--44444444-55555555-55555555-44444444--|--44444444-55555555-7777777777777777--|
E|--22222222-33333333--------------------|--22222222-33333333-5555555555555555--|


### CHORUS ### 01:50 ###
e|------------------------------------|
B|------------------------------------|  then continue like before..
G|--4--------------77777777-77777777--| 
D|--4----5----xxx--77777777-77777777--|  2x first part
A|--2----5----xxx--55555555-44444444--|  1x second part
E|-------3----xxx---------------------|



### CHORUS ### 02:16 ### (2x)



### OUTRO ### 03:08 ###
e|------------------|
B|------------------|
G|--------------77--|
D|--77--99--55--77--|
A|--77--99--55--55--|
E|--55--77--33------|

            
            
Suggest correction
Creating personal tab
Creating personal tab
You can edit any tab online and save it as your Personal.

You can edit, replace or remove any tab part or add personal notes – all changes will be seen only by you.

Personal tabs can be accessed anytime from any device, even offline.
Learn more »
Give kudos to tab author, rate the tab!
1 2 3 4 5
comments
print report bad tab
guest
You may want to rate the tab now too:
select rating
Wanna post a correction for this tab? Suggest correction