Oops, an error
Loading. Please wait.

Last Words Of A Shooting Star tab

by Mitski
2,995 views 93 this week
1 commentread comment
1 2 3 4 5
x 8
add to favorites
×
Save as Personal and add changes to this tab that will be seen only by you. Learn more ›
×
You can save this tab as Personal to edit and correct it or add notes. All changes will be seen only by you. Learn more »
launch autoscroll
font size
0
reset
how to read this tab
guitar tuner
edit
Autoscroll
slow
fast
+/-
esc
set tempo
stop
D |-------------|
A |-------------|
F#|-----0-----0-|
D |-----0-----0-|
A |---0-----0---|
D |-0-----0-----|

(or this way)

D |-------------|
A |-------------|
F#|-----0-----0-|
D |-------------|
A |---0-----0---|
D |-0-----0-----|

[Intro]
D |------------------------------|----------------------------------------|
A |------------------------------|----------------------------------------|
F#|------0------0------0------0--|------0------0------0------0------------|
D |------0------0------0------0--|------0------0------0------0------------|
A |----0------0------0------0----|----0------0------0------0--------------|
D |--0------0------0------0------|--0------0------0------0----------------|

[Verse]
D |------------------------------|----------------------------------------|
A |------------------------------|----------------------------------------|
F#|------0------0------4------4--|------5------5------7------7------------|
D |------0------0------4------4--|------5------5------7------7------------|
A |----0------0------4------4----|----5------5------7------7--------------|
D |--0------0------4------4------|--5------5------7------7----------------|

all of this turbulence wasn't forecasted, apologies from the intercom

D |------------------------------|----------------------------------------|
A |------------------------------|----------------------------------------|
F#|------0------0------4------4--|------5------5------7------0------------|
D |------0------0------4------4--|------5------5------7------0------------|
A |----0------0------4------4----|----5------5------7------0--------------|
D |--0------0------4------4------|--5------5------7------0----------------|

and I am relieved that I'd left my room tidy, they'll think of me kindly when they come for my things 

D |------------------------------|----------------------------------------|
A |------------------------------|----------------------------------------|
F#|------5------5------4------4--|------2------2------1------1------------|
D |------5------5------4------4--|------2------2------1------1------------|
A |----5------5------4------4----|----2------2------1------1--------------|
D |--5------5------4------4------|--2------2------1------1----------------|

they'll never know how I'd stared at the dark in that room, with no thoughts, like a blood-sniffing shark 

D |------------------------------|----------------------------------------|
A |------------------------------|----------------------------------------|
F#|------5------5------9------9--|-------5------5------7------0-----------|
D |------5------5------9------9--|-------5------5------7------0-----------|
A |----5------5------9------9----|----5------5------7------0--------------|
D |--5------5------9------9------|--5------5------7------0----------------|

and while my dreams made music in the night, carefully, I was going to live

D |-----------------------------------------------------------------------|
A |-----------------------------------------------------------------------|
F#|-----0-----0-----0-----0-----0-----------------------------------------|
D |-----0-----0-----0-----0-----0-----------------------------------------|
A |---0-----0-----0-----0-----0-------------------------------------------|
D |-0-----0-----0-----0-----0---------------------------------------------|

[Verse 2]
D |------------------------------|----------------------------------------|
A |------------------------------|----------------------------------------|
F#|------0------0------4------4--|------5------5------7------7------------|
D |------0------0------4------4--|------5------5------7------7------------|
A |----0------0------4------4----|----5------5------7------7--------------|
D |--0------0------4------4------|--5------5------7------7----------------|

you wouldn't leave till we loved in the morning, you'd learned from movies how love ought to be

D |------------------------------|----------------------------------------|
A |------------------------------|----------------------------------------|
F#|------0------0------4------4--|------5------5------7------0------------|
D |------0------0------4------4--|------5------5------7------0------------|
A |----0------0------4------4----|----5------5------7------0--------------|
D |--0------0------4------4------|--5------5------7------0----------------|

and you'd say you love me and look in my eyes, but I know through mine you were looking in yours

D |------------------------------|----------------------------------------|
A |------------------------------|----------------------------------------|
F#|------5------5------4------4--|------2------2------1------1------------|
D |------5------5------4------4--|------2------2------1------1------------|
A |----5------5------4------4----|----2------2------1------1--------------|
D |--5------5------4------4------|--2------2------1------1----------------|

and did you know the liberty bell is a replica, silently housed in its original walls  

D |------------------------------|----------------------------------------|
A |------------------------------|----------------------------------------|
F#|------5------5------9------9--|-------5------5------7------0-----------|
D |------5------5------9------9--|-------5------5------7------0-----------|
A |----5------5------9------9----|----5------5------7------0--------------|
D |--5------5------9------9------|--5------5------7------0----------------|

and while its dreams played music in the night, quietly, it was told to believe 

D |------------------------------|----------------------------------------|
A |------------------------------|----------------------------------------|
F#|------0------0------0------0--|------0------0------0-------------------|
D |------0------0------0------0--|------0------0------0-------------------|
A |----0------0------0------0----|----0------0------0---------------------|
D |--0------0------0------0------|--0------0------0-----------------------|

[Verse 3]
D |-----------------------------------------------------------------------|
A |-----------------------------------------------------------------------|
F#|----0----4----5----0----7----------------------------------------------|
D |----0----4----5----0----7----------------------------------------------|
A |----0----4----5----0----7----------------------------------------------|
D |----0----4----5----0----7----------------------------------------------|

I always wanted to die clean and pretty, but I'd be too busy on working days 

D |-----------------------------------------------------------------------|
A |-----------------------------------------------------------------------|
F#|----0----4----5----7----0----------------------------------------------|
D |----0----4----5----7----0----------------------------------------------|
A |----0----4----5----7----0----------------------------------------------|
D |----0----4----5----7----0----------------------------------------------|

so I am relieved that the turbulence wasn't forecasted, I couldn't have changed anyways 

D |------------------------------|----------------------------------------|
A |------------------------------|----------------------------------------|
F#|------5------5------4------4--|------2------2------1-----0-------------|
D |------5------5------4------4--|------2------2------1-----0-------------|
A |----5------5------4------4----|----2------2------1-------0-------------|
D |--5------5------4------4------|--2------2------1---------0-------------|

I am relieved that I'd left my room tidy, goodbye

            
            
Suggest correction
Creating personal tab
Creating personal tab
You can edit any tab online and save it as your Personal.

You can edit, replace or remove any tab part or add personal notes – all changes will be seen only by you.

Personal tabs can be accessed anytime from any device, even offline.
Learn more »
comments
print report bad tab
1 comment total.
+1 reply
mirana.natrure 14 Dec 12, 2016 03:12 AM

as an alternative intro:
play this 3 times...
D |---------|
A |---------|
F#|-----0---|
D |---0-----|
A |---------|
D |-0-------|

and on the fourth time play this, then resume playing the above for the rest of the intro.
D |-------------|
A |-----0----0--|
F#|-------------|
D |---0-----0---|
A |-------------|
D |-0-----0-----|

guest
You may want to rate the tab now too:
select rating
Wanna post a correction for this tab? Suggest correction