Oops, an error
Loading. Please wait.

The Great Escape tab

741 views 3 this week
no commentswrite comment
1 2 3 4 5
2 more votes to show rating
add to favorites
×
Save as Personal and add changes to this tab that will be seen only by you. Learn more ›
×
You can save this tab as Personal to edit and correct it or add notes. All changes will be seen only by you. Learn more »
launch autoscroll
font size
0
reset
how to read this tab
guitar tuner
edit
Autoscroll
slow
fast
+/-
esc
set tempo
stop
The Great Escape
by Mo Kenney

E-mail: sgc256@gmail.com

Standard Tuning
Capo on 4th Fret

h   hammer-on
p   pull-off




e|--------------------0-----------------------------------------3--------|
B|--------0---------------------0---------3-----------0h1----------------|
G|--------------0-----------0-------------------4-----------0------------|
D|--------2-------2-------2-------2-------4-------4---------------2------|
A|------------------------------------2-------2-------0-------0----------|
E|----0-------0-------0-------0------------------------------------------|
 

                                                               I have 

e|--------------------0-----------------------------------------3--------|
B|--------0---------------------0---------3-----------0h1----------------|
G|--------------0-----------0-------------------4-----------0------------|
D|--------2-------2-------2-------2-------4-------4---------------2------|
A|------------------------------------2-------2-------0-------0----------|
E|----0-------0-------0-------0------------------------------------------|


       changed  my  mind I think that   life   is   boring  and   I 

e|--------------------0-----------------------------------------0--------|
B|--------0---------------------0---------3-----------0h1----------------|
G|--------------0-----------0-------------------4-----------0------------|
D|--------2-------2-------2-------2-------4-------4---------------2------|
A|------------------------------------2-------2-------0-------0----------|
E|----0-------0-------0-------0------------------------------------------|


      don’t    suppose   you’d wanna  take   me   away  

e|--------------------0-----------------------------------------3--------|
B|--------0---------------------0---------3-----------0h1----------------|
G|--------------0-----------0-------------------4-----------0------------|
D|--------2-------2-------2-------2-------4-------4---------------2------|
A|------------------------------------2-------2-------0-------0----------|
E|----0-------0-------0-------0------------------------------------------|


     close your eyes     until the      early       morning   and then 

e|--------------------0-----------------------------------------0--------|
B|--------0---------------------0---------3-----------0h1----------------|
G|--------------0-----------0-------------------4-----------0------------|
D|--------2-------2-------2-------2-------4-------4---------------2------|
A|------------------------------------2-------2-------0-------0----------|
E|----0-------0-------0-------0------------------------------------------|


     when     we   wake we’ll make our   great  escape

e|--------------------0-----------------------------------------3--------|
B|--------0---------------------0---------3-----------0h1----------------|
G|--------------0-----------0-------------------4-----------0------------|
D|--------2-------2-------2-------2-------4-------4---------------2------|
A|------------------------------------2-------2-------0-------0----------|
E|----0-------0-------0-------0------------------------------------------|


          la  dada  da  da    da          la  dada  da  da    da

e|--------3---2p0-------0-----------------3---2p0-------0----------------|
B|------------------3---------2---------------------3---------2----------|
G|----------------------------------0-------------------------------0----|
D|--------2-------2-------2-------2-------2-------2-------2-------2------|
A|----------------------------0-------------------------------0----------|
E|----0-------0-------0---------------0-------0-------0------------------|




e|--------------------0-----------------------------------------3--------|
B|--------0---------------------0---------3-----------0h1----------------|
G|--------------0-----------0-------------------4-----------0------------|
D|--------2-------2-------2-------2-------4-------4---------------2------|
A|------------------------------------2-------2-------0-------0----------|
E|----0-------0-------0-------0------------------------------------------|


                                                             I see 

e|--------------------0-----------------------------------------3--------|
B|--------0---------------------0---------3-----------0h1----------------|
G|--------------0-----------0-------------------4-----------0------------|
D|--------2-------2-------2-------2-------4-------4---------------2------|
A|------------------------------------2-------2-------0-------0----------|
E|----0-------0-------0-------0------------------------------------------|



        rings   of   light  I  think  the sky   is   falling it’s a 

e|--------------------0-----------------------------------------0--------|
B|--------0---------------------0---------3-----------0h1----------------|
G|--------------0-----------0-------------------4-----------0------------|
D|--------2-------2-------2-------2-------4-------4---------------2------|
A|------------------------------------2-------2-------0-------0----------|
E|----0-------0-------0-------0------------------------------------------|


      beautiful    day   to   be   so   far     away

e|--------------------0-----------------------------------------0--------|
B|--------0---------------------0---------3-----------0h1----------------|
G|--------------0-----------0-------------------4-----------0------------|
D|--------2-------2-------2-------2-------4-------4---------------2------|
A|------------------------------------2-------2-------0-------0----------|
E|----0-------0-------0-------0------------------------------------------|


      in    the   night   we’ll set the   world on   fire  you’re afr- 

e|--------------------0-----------------------------------------0--------|
B|--------0---------------------0---------3-----------0h1----------------|
G|--------------0-----------0-------------------4-----------0------------|
D|--------2-------2-------2-------2-------4-------4---------------2------|
A|------------------------------------2-------2-------0-------0----------|
E|----0-------0-------0-------0------------------------------------------|


      aid  of the dark  and  I  am   just     afraid

e|--------------------0-----------------------------------------3--------|
B|--------0---------------------0---------3-----------0h1----------------|
G|--------------0-----------0-------------------4-----------0------------|
D|--------2-------2-------2-------2-------4-------4---------------2------|
A|------------------------------------2-------2-------0-------0----------|
E|----0-------0-------0-------0------------------------------------------|


          la  dada  da  da    da          la  dada  da  da    da

e|--------3---2p0-------0-----------------3---2p0-------0----------------|
B|------------------3---------2---------------------3---------2----------|
G|----------------------------------0-------------------------------0----|
D|--------2-------2-------2-------2-------2-------2-------2-------2------|
A|----------------------------0-------------------------------0----------|
E|----0-------0-------0---------------0-------0-------0------------------|


          la  dada  da  da    da          la  dada  da  da    da

e|--------3---2p0-------0-----------------3---2p0-------0----------------|
B|------------------3---------2---------------------3---------2----------|
G|----------------------------------0-------------------------------0----|
D|--------2-------2-------2-------2-------2-------2-------2-------2------|
A|----------------------------0-------------------------------0----------|
E|----0-------0-------0---------------0-------0-------0------------------|


                                                             *Humming*

e|--------------------0-----------------------------------------3--------|
B|--------0---------------------0---------3-----------0h1----------------|
G|--------------0-----------0-------------------4-----------0------------|
D|--------2-------2-------2-------2-------4-------4---------------2------|
A|------------------------------------2-------2-------0-------0----------|
E|----0-------0-------0-------0------------------------------------------|




e|--------------------0-----------------------------------------3--------|
B|--------0---------------------0---------3-----------0h1----------------|
G|--------------0-----------0-------------------4-----------0------------|
D|--------2-------2-------2-------2-------4-------4---------------2------|
A|------------------------------------2-------2-------0-------0----------|
E|----0-------0-------0-------0------------------------------------------|




e|--------------------0-----------------------------------------3--------|
B|--------0---------------------0---------3-----------0h1----------------|
G|--------------0-----------0-------------------4-----------0------------|
D|--------2-------2-------2-------2-------4-------4---------------2------|
A|------------------------------------2-------2-------0-------0----------|
E|----0-------0-------0-------0------------------------------------------|


                                                                 your

e|--------------------0-----------------------------------------3--------|
B|--------0---------------------0---------3-----------0h1----------------|
G|--------------0-----------0-------------------4-----------0------------|
D|--------2-------2-------2-------2-------4-------4---------------2------|
A|------------------------------------2-------2-------0-------0----------|
E|----0-------0-------0-------0------------------------------------------|


      name   is   called  and  I can     hear  you   waiting  for a 

e|--------------------0-----------------------------------------0--------|
B|--------0---------------------0---------3-----------0h1----------------|
G|--------------0-----------0-------------------4-----------0------------|
D|--------2-------2-------2-------2-------4-------4---------------2------|
A|------------------------------------2-------2-------0-------0----------|
E|----0-------0-------0-------0------------------------------------------|


      hole in the  wall where you can spend your time           they’ll 

e|--------------------0-----------------------------------------0--------|
B|--------0---------------------0---------3-----------0h1----------------|
G|--------------0-----------0-------------------4-----------0------------|
D|--------2-------2-------2-------2-------4-------4---------------2------|
A|------------------------------------2-------2-------0-------0----------|
E|----0-------0-------0-------0------------------------------------------|


      offer   a   hand    and  drag you  farther     under you’re afr-

e|--------------------0-----------------------------------------0--------|
B|--------0---------------------0---------3-----------0h1----------------|
G|--------------0-----------0-------------------4-----------0------------|
D|--------2-------2-------2-------2-------4-------4---------------2------|
A|------------------------------------2-------2-------0-------0----------|
E|----0-------0-------0-------0------------------------------------------|


      aid of the  dark  cause you’re  afraid  to  die           they’ll

e|--------------------0-----------------------------------------3--------|
B|--------0---------------------0---------3-----------0h1----------------|
G|--------------0-----------0-------------------4-----------0------------|
D|--------2-------2-------2-------2-------4-------4---------------2------|
A|------------------------------------2-------2-------0-------0----------|
E|----0-------0-------0-------0------------------------------------------|


      fill   you   up     until  you’re   fat   and   greedy    I ex-

e|--------------------0-----------------------------------------0--------|
B|--------0---------------------0---------3-----------0h1----------------|
G|--------------0-----------0-------------------4-----------0------------|
D|--------2-------2-------2-------2-------4-------4---------------2------|
A|------------------------------------2-------2-------0-------0----------|
E|----0-------0-------0-------0------------------------------------------|


      pected     more   but  really   what can  I  say           the

e|--------------------0-----------------------------------------3--------|
B|--------0---------------------0---------3-----------0h1----------------|
G|--------------0-----------0-------------------4-----------0------------|
D|--------2-------2-------2-------2-------4-------4---------------2------|
A|------------------------------------2-------2-------0-------0----------|
E|----0-------0-------0-------0------------------------------------------|


      only      truth     to  what the    preacher’s selling    is the 

e|--------------------0-----------------------------------------0--------|
B|--------0---------------------0---------3-----------0h1----------------|
G|--------------0-----------0-------------------4-----------0------------|
D|--------2-------2-------2-------2-------4-------4---------------2------|
A|------------------------------------2-------2-------0-------0----------|
E|----0-------0-------0-------0------------------------------------------|


      fear  that keeps you    coming  back  every day

e|--------------------0-----------------------------------------3--------|
B|--------0---------------------0---------3-----------0h1----------------|
G|--------------0-----------0-------------------4-----------0------------|
D|--------2-------2-------2-------2-------4-------4---------------2------|
A|------------------------------------2-------2-------0-------0----------|
E|----0-------0-------0-------0------------------------------------------|


          la  dada  da  da    da          la  dada  da  da    da

e|--------3---2p0-------0-----------------3---2p0-------0----------------|
B|------------------3---------2---------------------3---------2----------|
G|----------------------------------0-------------------------------0----|
D|--------2-------2-------2-------2-------2-------2-------2-------2------|
A|----------------------------0-------------------------------0----------|
E|----0-------0-------0---------------0-------0-------0------------------|


          la  dada  da  da    da          la  dada  da  da    dadadadum

e|--------3---2p0-------0-----------------3---2p0-------0----------------|
B|------------------3---------2---------------------3---------2p0--------|
G|----------------------------------0-----------------------------0------|
D|--------2-------2-------2-------2-------2-------2-------2---------2----|
A|----------------------------0-------------------------------0----------|
E|----0-------0-------0---------------0-------0-------0------------------|




            
            
Suggest correction
Creating personal tab
Creating personal tab
You can edit any tab online and save it as your Personal.

You can edit, replace or remove any tab part or add personal notes – all changes will be seen only by you.

Personal tabs can be accessed anytime from any device, even offline.
Learn more »
Give kudos to tab author, rate the tab!
1 2 3 4 5
comments
print report bad tab
guest
You may want to rate the tab now too:
select rating
Wanna post a correction for this tab? Suggest correction