Oops, an error
Loading. Please wait.

Extreme Ways Acoustic chords

version 4
version 4

Whole song

Interactive

by Moby
990 views 27 this week
no commentswrite comment
1 2 3 4 5
x 3
add to favorites
×
Save as Personal and add changes to this tab that will be seen only by you. Learn more ›
×
You can save this tab as Personal to edit and correct it or add notes. All changes will be seen only by you. Learn more »
launch autoscroll
font size
0
reset
transpose
0
reset
simplify chords
display chords
guitar tuner
edit
Autoscroll
slow
fast
+/-
esc
set tempo
stop
Author
Difficulty
Strumming
There is no strumming pattern for this song yet. and get +5 IQ
Standard Tuning EADGBe 


Here's an acoustic version you could play including all the parts. 
Thanks to soccerguy6494 for the outro tab. 


Chords: 

Bm7   - x24232
B7sus - x24252
A7    - x02020
Em7   - 079787
E7sus - 0797107



Intro: 

Siren: [e|--2/14~--]


Electric piano: 

    Bm7              B7sus       A7
e|--2----2----2--2---2--2--2--|--0----0----0--0---0--0--0--|
B|--3----3----3--3---5--5--3--|--2----2----2--2---2--2--2--|
G|--2----2----2--2---2--2--2--|--0----0----0--0---0--0--0--|
D|--4----4----4--4---4--4--4--|--2----2----2--2---2--2--2--|
A|--2----2----2--2---2--2--2--|--0----0----0--0---0--0--0--|
E|----------------------------|----------------------------|

    Em7              E7sus       Bm7              B7sus
e|--7----7----7--7---7--7--7--|--2----2----2--2---2--2--2--|
B|--8----8----8--8---10-10-8--|--3----3----3--3---5--5--3--|
G|--7----7----7--7---7--7--7--|--2----2----2--2---2--2--2--|
D|--9----9----9--9---9--9--9--|--4----4----4--4---4--4--4--|
A|--7----7----7--7---7--7--7--|--2----2----2--2---2--2--2--|
E|----------------------------|----------------------------|


Verse 1: 

Bm
Extreme ways are back again, extreme places I didn't know
A
I broke everything new again, everything that I'd owned
Em
I threw it out the windows, came along, extreme ways I know apart
Bm
The colors of my sea, perfect color me

Bm
Extreme ways that help me, that help me out late at night
A
Extreme places I had gone, but never seen any light
Em
Dirty basements, dirty noise, dirty places coming through
Bm
Extreme worlds alone, did you ever like it planned


Pre-Chorus 1: 

Em                        D
I would stand in line for this...
        Em                      D
There's always room in life for this...


Chorus 1: 

Bm                        A
Oh baby, oh baby, then it fell apart, fell apart
Em                        Bm
Oh baby, oh baby, then it fell apart, it fell apart

Bm                        A
Oh baby, oh baby, then it fell apart, fell apart
Em                        Bm
Oh baby, oh baby, like it always does, always does


Verse 2: 

Bm
Extreme signs that told me, they helped me down every night
A
I didn't have much to say, I didn't get above the light
Em
I closed my eyes and closed myself, and closed my world and never opened
Bm
Up to anything, that could get me along

Bm
I had to close down everything, I had to close down my mind
A
Too many things to cover me, too much can make me blind
Em
I've seen so much in so many places, so many heartaches, so many faces
Bm
So many dirty things, you couldn't even believe


Pre-Chorus 2: 

Em                        D
I would stand in line for this...
        Em                      D
There's always room in life for this...


Chorus 2: 

Bm                        A
Oh baby, oh baby, then it fell apart, fell apart
Em                        Bm
Oh baby, oh baby, then it fell apart, it fell apart

Bm                        A
Oh baby, oh baby, then it fell apart, fell apart
Em                        Bm
Oh baby, oh baby, like it always does, always does


Chorus 3:

Bm                        A
Oh baby, oh baby, then it fell apart, fell apart
Em                        Bm
Oh baby, oh baby, then it fell apart, it fell apart

Bm                        A
Oh baby, oh baby, then it fell apart, fell apart
Em                        Bm
Oh baby, oh baby, like it always does, always does


Outro:

e|---------------------------------------------------|
B|--------------------------------------------3------|
G|---------------2-2-2-2/4-----------------2-----4---|
D|---------0-2-4---------------------0-2-4-----------|
A|--2--0-2--------------------2--0-2-----------------|
E|---------------------------------------------------|

e|---------------------------------------------------|
B|---------------------------------------------------|
G|---------------2-2-2-2/4-----------------2--2--2-4\|
D|---------0-2-4---------------------0-2-4-----------|
A|--2--0-2--------------------2--0-2-----------------|
E|---------------------------------------------------|




(end)

            
            
Suggest correction
Creating personal tab
Creating personal tab
You can edit any tab online and save it as your Personal.

You can edit, replace or remove any tab part or add personal notes – all changes will be seen only by you.

Personal tabs can be accessed anytime from any device, even offline.
Learn more »
Give kudos to tab author, rate the tab!
1 2 3 4 5
comments
print report bad tab
guest
You may want to rate the tab now too:
select rating
Wanna post a correction for this tab? Suggest correction