Oops, an error
Loading. Please wait.

Someone To Love chords

by Moby
93 views 3 this week
no commentswrite comment
1 2 3 4 5
3 more votes to show rating
add to favorites
×
Save as Personal and add changes to this tab that will be seen only by you. Learn more ›
×
You can save this tab as Personal to edit and correct it or add notes. All changes will be seen only by you. Learn more »
launch autoscroll
font size
0
reset
transpose
0
reset
display chords
guitar tuner
edit
Autoscroll
slow
fast
+/-
esc
set tempo
stop
Author
Difficulty
Strumming
There is no strumming pattern for this song yet. and get +5 IQ
Song: Someone to love
Artist: Moby
Album: Animal Rights
Year: 1996
Tabber: beranger80@hotmail.com



Intro (0:11)

   D# D  B      
e-----------------|
b--8-7---4-4-4-4--|
g--8-7---4-4-4-4--|
d--8-7---4-4-4-4--|
a--6-5---2-2-2-2--|
e-----------------|



Verse (0:22)

B                   A 
I was cold and wet like no one else
C               E
It came in now, a professional
B              A              C              E
Oh, it's over, oh, it's over, oh, it's over now
B                                 A    
Well I, fall in a sleep and I let go, make me a being without a soul
C                             E
Somebody live my life I've got to know what dead men know



Chorus (0:56)
 
D# D    B        D# D    B
Someone to love, someone to love
D# D    B        D# D    B
Someone to love, someone to love

   D# D  B      
e-----------------|
b--8-7---4-4-4-4--|
g--8-7---4-4-4-4--|
d--8-7---4-4-4-4--|
a--6-5---2-2-2-2--|
e-----------------|



Verse (1:08)
B                 A 
I was on my knees in front of her
C                             E
When I feel like going down I know it's everywhere
B              A              C              E
Oh, it's over, oh, it's over, oh, it's over now
B                                 A
You make me another hell, I can't live but I'm no one else
C                             E
Somebody live my life I've got to know what dead men know



Chorus (1:41)

D# D    B        D# D    B
Someone to love, someone to love
D# D    B        D# D    B
Someone to love, someone to love

   D# D  B      
e-----------------|
b--8-7---4-4-4-4--|
g--8-7---4-4-4-4--|
d--8-7---4-4-4-4--|
a--6-5---2-2-2-2--|
e-----------------|



Solo (1:52)

e---------------------------|-----------------------------|
b------7---7--8-8--7---7----|------7---7--10-10-10--8--7--|
g--5-7---7-----------7---7--|--5-7---7--------------------|
d---------------------------|-----------------------------|  x3
a---------------------------|-----------------------------|
e---------------------------|-----------------------------|


e------------------------|------------------------------------------|
b--7-7-7-8-8--7-7-7-8-8--|--8h10r8---7-8h10r8---7---8h10r8---7------|
g------------------------|---------7----------7---7--------7----9\--|
d------------------------|------------------------------------------|
a------------------------|------------------------------------------|
e------------------------|------------------------------------------|



Bridge (2:15)

B                  A
Like I said before it's over again
C                             E
And no one left but me and and no one lifted me no



Chorus (2:27)

D# D    B        D# D    B
Someone to love, someone to love
D# D    B        D# D    B
Someone to love, someone to love
D# D    B        D# D    B
Someone to love, someone to love
D# D    B        D# D    B
Someone to love, someone to love

   D# D  B      
e-----------------|
b--8-7---4-4-4-4--|
g--8-7---4-4-4-4--|
d--8-7---4-4-4-4--|
a--6-5---2-2-2-2--|
e-----------------|



End on E at 2:50

            
            
Suggest correction
Creating personal tab
Creating personal tab
You can edit any tab online and save it as your Personal.

You can edit, replace or remove any tab part or add personal notes – all changes will be seen only by you.

Personal tabs can be accessed anytime from any device, even offline.
Learn more »
Give kudos to tab author, rate the tab!
1 2 3 4 5
comments
print report bad tab
guest
You may want to rate the tab now too:
select rating
Wanna post a correction for this tab? Suggest correction