Oops, an error
Loading. Please wait.

The City Call tab

version 1
version 1

Whole song

Interactive

689 views 1 this week
no commentswrite comment
1 2 3 4 5
3 more votes to show rating
add to favorites
×
Save as Personal and add changes to this tab that will be seen only by you. Learn more ›
×
You can save this tab as Personal to edit and correct it or add notes. All changes will be seen only by you. Learn more »
launch autoscroll
font size
0
reset
how to read this tab
guitar tuner
edit
Autoscroll
slow
fast
+/-
esc
set tempo
stop
#----------------------------------PLEASE NOTE---------------------------------#
#This file is the author's own work and represents their interpretation of the #
#song. You may only use this file for private study, scholarship, or research. #
#------------------------------------------------------------------------------##

                                  THE CITY CALL
                           As recorded by Mock Orange
                      (From the 2000 Album THE RECORD PLAY)

Music by Mock Orange
Transcribed by Ben Pursley

Gtr I (E A D G B E) - 'Untitled'
Gtr II (E A D G B E) - 'Untitled'
Gtr III (E A D G B E) - 'Untitled'

  Q=160
 4/4
  Gtr III
  Q  E  Q  Q   E    +H.      E E   E E E  E E E E E   E E E  E E Q   E
|-------------10-|-(10)----------|----------5-5-----|-------------------|
|-5--5-10--7-----|-----------5-5-|-7-7-5--5-----7-7-|---7-5--7---7---3--|
|----------------|---------------|------------------|-------------------|
|----------------|---------------|------------------|-------------------|
|----------------|---------------|------------------|-------------------|
|----------------|---------------|------------------|-------------------|
|
| Gtr I
| >
| W                 +W             E E E  E E E E E   E E E  E E E E E
|----------------|---------------|------------------|-------------------|
|----------------|---------------|------------------|-------------------|
|-9--------------|--(9)----------|-7-7-x-14---x-x-7-|-7-7-x-14---x-x-x--|
|-7--------------|--(7)----------|-5-5-x-12---x-x-5-|-5-5-x-12---x-x-x--|
|-5--------------|--(5)----------|-5-5-x-12---x-x-5-|-5-5-x-12---x-x-x--|
|----------------|---------------|------------------|-------------------|


  Q  E  Q  Q   E    +H.      E E   E E E  E E E E E   E E E  E E Q   E
|-------------10-|-(10)----------|----------5-5-----|------------------|
|-5--5-10--7-----|-----------5-5-|-7-7-5--5-----7-7-|---7-5--7---7---3-|
|----------------|---------------|------------------|------------------|
|----------------|---------------|------------------|------------------|
|----------------|---------------|------------------|------------------|
|----------------|---------------|------------------|------------------|
|
| >
| W                 +W             E E E  E E E E E   E E E  E E E E E
|----------------|---------------|------------------|------------------|
|----------------|---------------|------------------|------------------|
|-9--------------|--(9)----------|-7-7-x-14---x-x-7-|-7-7-x-14---x-x-x-|
|-7--------------|--(7)----------|-5-5-x-12---x-x-5-|-5-5-x-12---x-x-x-|
|-5--------------|--(5)----------|-5-5-x-12---x-x-5-|-5-5-x-12---x-x-x-|
|----------------|---------------|------------------|------------------|


  Q  E  Q  Q   E    +H.      E E   E E E  E E E E E   E E E  E E Q   E
|-------------10-|-(10)----------|----------5-5-----|------------------|
|-5--5-10--7-----|-----------5-5-|-7-7-5--5-----7-7-|---7-5--7---7---3-|
|----------------|---------------|------------------|------------------|
|----------------|---------------|------------------|------------------|
|----------------|---------------|------------------|------------------|
|----------------|---------------|------------------|------------------|
|
| >
| W                 +W             E E E  E E E E E   E E E  E E E E E
|----------------|---------------|------------------|------------------|
|----------------|---------------|------------------|------------------|
|-9--------------|--(9)----------|-7-7-x-14---x-x-7-|-7-7-x-14---x-x-x-|
|-7--------------|--(7)----------|-5-5-x-12---x-x-5-|-5-5-x-12---x-x-x-|
|-5--------------|--(5)----------|-5-5-x-12---x-x-5-|-5-5-x-12---x-x-x-|
|----------------|---------------|------------------|------------------|


  Q  E  Q  Q   E    +H.      E E   E E E  E E E E E   E E E  E E Q   E
|-------------10-|-(10)----------|----------5-5-----|------------------|
|-5--5-10--7-----|-----------5-5-|-7-7-5--5-----7-7-|---7-5--7---7---3-|
|----------------|---------------|------------------|------------------|
|----------------|---------------|------------------|------------------|
|----------------|---------------|------------------|------------------|
|----------------|---------------|------------------|------------------|
|
| >
| W                 +W             E E E  E E E E E   E E E  E E E E E
|----------------|---------------|------------------|------------------|
|----------------|---------------|------------------|------------------|
|-9--------------|--(9)----------|-7-7-x-14---x-x-7-|-7-7-x-14---x-x-x-|
|-7--------------|--(7)----------|-5-5-x-12---x-x-5-|-5-5-x-12---x-x-x-|
|-5--------------|--(5)----------|-5-5-x-12---x-x-5-|-5-5-x-12---x-x-x-|
|----------------|---------------|------------------|------------------|


  Gtr II
  E E E E E E E E    E  E E E E E E E   E E E E E E E E   E E E E E E E E
|-----------------|-------------------|-----------------|-----------------|
|-----------------|-------------------|-----------------|-----------------|
|-----------------|-------------------|-----------------|-----------------|
|-----------------|-------------------|-----------------|-----------------|
|-5-5-5-5-5-5-5-5-|--7--7-7-7-9-9-9-9-|-0-0-0-0-0-0-0-0-|-0-0-0-0-0-0-0-0-|
|-----------------|-------------------|-----------------|-----------------|
|
| >
| W                 +W                  W                 H       Q   Q
|-----------------|-------------------|-----------------|-------------5---|
|-----------------|-------------------|-----------------|-----------------|
|-9---------------|-(9)---------------|-----------------|-----------------|
|-7---------------|-(7)---------------|-----------------|-----------------|
|-5---------------|-(5)---------------|-----------------|-----------------|
|-----------------|-------------------|-----------------|-----------------|


  E E E E E E E E    E  E E E E E E E   E E E  E H         E E E  E H
|-----------------|-------------------|------------------|-----------------|
|-----------------|-------------------|------------------|-----------------|
|-----------------|-------------------|------------------|-----------------|
|-----------------|-------------------|------------------|-----------------|
|-5-5-5-5-5-5-5-5-|--7--7-7-7-9-9-9-9-|-0-0-0--0---------|-0-0-0--0--------|
|-----------------|-------------------|------------------|-----------------|
|
| W                 +H        H         E E E  E E E E E   E E E  E E E Q
|-----------------|-------------------|------------------|-----------------|
|-5---------------|-(5)---------------|------------------|-----------------|
|-----------------|-------------------|-7-7-x-14---x-x-7-|-7-7-x-14---x-9--|
|-----------------|-------------------|-5-5-x-12---x-x-5-|-5-5-x-12---x-7--|
|-----------------|-------------------|-5-5-x-12---x-x-5-|-5-5-x-12---x-5--|
|-----------------|-------------------|------------------|-----------------|


   E  E E E E E E E    E  E E E E E E E   E E E  E H         E E E  E H
|-------------------|-------------------|------------------|-----------------|
|-------------------|-------------------|------------------|-----------------|
|-------------------|-------------------|------------------|-----------------|
|-------------------|-------------------|------------------|-----------------|
|--5--5-5-5-5-5-5-5-|--7--7-7-7-9-9-9-9-|-0-0-0--0---------|-0-0-0--0--------|
|-------------------|-------------------|------------------|-----------------|
|
|  >
| +W                  +W                  E E E  E E E E E   E E E  E E E Q
|-------------------|-------------------|------------------|-----------------|
|-------------------|-------------------|------------------|-----------------|
|-(9)---------------|-(9)---------------|-7-7-x-14---x-x-7-|-7-7-x-14---x-9--|
|-(7)---------------|-(7)---------------|-5-5-x-12---x-x-5-|-5-5-x-12---x-7--|
|-(5)---------------|-(5)---------------|-5-5-x-12---x-x-5-|-5-5-x-12---x-5--|
|-------------------|-------------------|------------------|-----------------|


   E  E E E E E E E    W
|-------------------|-------------------|
|-------------------|-------------------|
|-------------------|-------------------|
|-------------------|-------------------|
|--5--5-5-5-5-5-5-5-|-------------------|
|-------------------|-------------------|
|
| +W                  +E  E E E E E E E
|-------------------|-------------------|
|-------------------|-------------------|
|-(9)---------------|-(9)-9-9-9-9-9-9---|
|-(7)---------------|-(7)-7-7-7-7-7-7---|
|-(5)---------------|-(5)-5-5-5-5-5-5---|
|-------------------|-------------------|


                                            2/4
  W                     W                    W
|---------------------|--------------------|---------|
|---------------------|--------------------|---------|
|---------------------|--------------------|---------|
|---------------------|--------------------|---------|
|---------------------|--------------------|---------|
|---------------------|--------------------|---------|
|
| Q  +E  E Q  +E  S S   Q  +E  E  E  E  Q    Q  Q
|---------------------|--------------------|-5-------|
|---------------------|--------x-10-10-10--|----7----|
|---------------------|--------x--7--7--7--|---------|
|-7--(7)-x-7--(7)-x-x-|-7--(7)-x--7--7--7--|---------|
|-5--(5)-x-5--(5)-x-x-|-5--(5)-------------|---------|
|-3--(3)-x-3--(3)-x-x-|-3--(3)-------------|---------|


 4/4
  Gtr I
   E  E  E  E  E  E  E  E    E  E  E  E  E  E  E E
|-------------------------|------------------------|
|-10-10-10-10-10-10-10-10-|-10-10-10-10-10-10-10-7-|
|-------------------------|------------------------|
|-------------------------|------------------------|
|-------------------------|------------------------|
|-------------------------|------------------------|


  E E E  Q  Q  E   E E E  Q  Q  E
|----------------|-----------------|
|-----7-10--7--7-|-----7-10--7--7--|
|-7-9------------|-7-9-------------|
|----------------|-----------------|
|----------------|-----------------|
|----------------|-----------------|


   E   E  E  E  E  E  E  E    E   E  E  E  E  E  E E
|--------------------------|-------------------------|
|-10--10-10-10-10-10-10-10-|-10--10-10-10-10-10-10-7-|
|--------------------------|-------------------------|
|--------------------------|-------------------------|
|--------------------------|-------------------------|
|--------------------------|-------------------------|
|
| Gtr III
|  Q.        Q     Q     E   +E   Q     Q     Q    E
|--------------------------|-------------------------|
|-----------10-----------7-|-(7)-------10----------7-|
|------------------9-------|------9-----------9------|
|--------------------------|-------------------------|
|--------------------------|-------------------------|
|--------------------------|-------------------------|


  E E E  Q  Q  E   E E E  Q  Q  E
|----------------|----------------|
|-----7-10--7--7-|-----7-10--7--7-|
|-7-9------------|-7-9------------|
|----------------|----------------|
|----------------|----------------|
|----------------|----------------|
|
| E E E  Q  Q  E   E E E  Q  Q  E
|----------------|----------------|
|-----7-10--7--7-|-----7-10--7--7-|
|-7-9------------|-7-9------------|
|----------------|----------------|
|----------------|----------------|
|----------------|----------------|


   E   E  E  E  E  E  E  E    E   E  E  E  E  E  E E
|--------------------------|-------------------------|
|-10--10-10-10-10-10-10-10-|-10--10-10-10-10-10-10-7-|
|--------------------------|-------------------------|
|--------------------------|-------------------------|
|--------------------------|-------------------------|
|--------------------------|-------------------------|
|
|  Q.        Q     Q     E   +E   Q     Q     Q    E
|--------------------------|-------------------------|
|-----------10-----------7-|-(7)-------10----------7-|
|------------------9-------|------9-----------9------|
|--------------------------|-------------------------|
|--------------------------|-------------------------|
|--------------------------|-------------------------|


  E E E  Q  Q  E   E E E  Q  Q  E
|----------------|----------------|
|-----7-10--7--7-|-----7-10--7--7-|
|-7-9------------|-7-9------------|
|----------------|----------------|
|----------------|----------------|
|----------------|----------------|
|
| E E E  Q  Q  E   E E E  Q  Q  E
|----------------|----------------|
|-----7-10--7--7-|-----7-10--7--7-|
|-7-9------------|-7-9------------|
|----------------|----------------|
|----------------|----------------|
|----------------|----------------|


   E   E  E  E  E  E  E  E    E   E  E  E  E  E  E E
|--------------------------|-------------------------|
|-10--10-10-10-10-10-10-10-|-10--10-10-10-10-10-10---|
|--------------------------|-------------------------|
|--------------------------|-------------------------|
|--------------------------|-------------------------|
|--------------------------|-------------------------|
|
|  Q.        Q     Q     E   +E   Q     Q     Q    E
|--------------------------|-------------------------|
|-----------10----10-----7-|-(7)-------10------------|
|--------------------------|------9-----------9------|
|--------------------------|-------------------------|
|--------------------------|-------------------------|
|--------------------------|-------------------------|


  Q  +E  E Q  +E  S S   Q  +E  E  E  E  Q
|---------------------|---------------------|
|---------------------|--------x-10-10-10---|
|---------------------|--------x--7--7--7---|
|-7--(7)-x-7--(7)-x-x-|-7--(7)-x--7--7--7---|
|-5--(5)-x-5--(5)-x-x-|-5--(5)--------------|
|-3--(3)-x-3--(3)-x-x-|-3--(3)--------------|
|
| Q  +E  E Q  +E  S S   Q  +E  E  E  E  Q
|---------------------|---------------------|
|---------------------|--------x-10-10-10---|
|---------------------|--------x--7--7--7---|
|-7--(7)-x-7--(7)-x-x-|-7--(7)-x--7--7--7---|
|-5--(5)-x-5--(5)-x-x-|-5--(5)--------------|
|-3--(3)-x-3--(3)-x-x-|-3--(3)--------------|


  Gtrs I, III
  Q  Q  Q  Q    +E  E E E  E  E  Q
|-------------|---------------------|
|----------7--|-(7)---7-7-10-10-10--|
|----9--9--0--|-(0)---0-0--0--0--0--|
|----7--7-----|---------------------|
|----5--5--5--|-(5)-------10-10-10--|
|-------------|---------------------|


  Q  +E  E Q  +E  S S   Q  +E  E  E  E  Q
|---------------------|---------------------|
|---------------------|--------x-10-10-10---|
|---------------------|--------x--7--7--7---|
|-7--(7)-x-7--(7)-x-x-|-7--(7)-x--7--7--7---|
|-5--(5)-x-5--(5)-x-x-|-5--(5)--------------|
|-3--(3)-x-3--(3)-x-x-|-3--(3)--------------|


  Q  Q  Q  Q    +E  E E E  E  E  Q     E  E  E  E  E  E  E  E   E E E E Q  Q
|-------------|---------------------|-------------------------|---------------|
|----------7--|-(7)---7-7-10-10-10--|-10-10-10-10-10-10-10-10-|-7-7-7-7-7--7--|
|----9--9--0--|-(0)---0-0--0--0--0--|--0--0--0--0--0--0--0--0-|-0-0-0-0-0--0--|
|----7--7-----|---------------------|--9--9--9--9--9--9--9--9-|-5-5-5-5-5--5--|
|----5--5--5--|-(5)-------10-10-10--|-10-10-10-10-10-10-10-10-|-7-7-7-7-7--7--|
|-------------|---------------------|-------------------------|---------------|


  Q  Q  Q  Q    +E  E E E  E  E  Q
|-------------|---------------------|
|----------7--|-(7)---7-7-10-10-10--|
|----9--9--0--|-(0)---0-0--0--0--0--|
|----7--7-----|---------------------|
|----5--5--5--|-(5)-------10-10-10--|
|-------------|---------------------|


  Q  +E  E Q  +E  S S   Q  +E   E  E  E  Q
|---------------------|---------------------|
|---------------------|---------x-10-10-10--|
|---------------------|---------x--7--7--7--|
|-7--(7)-x-7--(7)-x-x-|-7--(7)--x--7--7--7--|
|-5--(5)-x-5--(5)-x-x-|-5--(5)--------------|
|-3--(3)-x-3--(3)-x-x-|-3--(3)--------------|


                                       |------6-------|
  Q  Q  Q  Q    +E  E E E  E  E  Q     Q  Q  Q  Q  Q  Q
|-------------|---------------------|-------------------|
|----------7--|-(7)---7-7-10-10-10--|-10-10-10-10-10-10-|
|----9--9--0--|-(0)---0-0--0--0--0--|--0--0--0--0--0--0-|
|----7--7-----|---------------------|--9--9--9--9--9--9-|
|----5--5--5--|-(5)-------10-10-10--|-10-10-10-10-10-10-|
|-------------|---------------------|-------------------|


   |------6-------|   |----6----|   |-3-|
   Q  Q  Q  Q  Q  Q   Q Q Q Q Q Q   Q Q Q E E E E
|-------------------|-------------|---------------|
|-10-10-10-10-10-10-|-7-7-7-7-7-7-|-7-7-7-7-7-7-7-|
|--0--0--0--0--0--0-|-0-0-0-0-0-0-|-0-0-0-0-0-0-0-|
|--9--9--9--9--9--9-|-5-5-5-5-5-5-|-5-5-5-5-5-5-5-|
|-10-10-10-10-10-10-|-7-7-7-7-7-7-|-7-7-7-7-7-7-7-|
|-------------------|-------------|---------------|


  Gtr I
  E E E E E E E E   +E  Q  Q  Q  +E    +H     +Q   +E  E   +E  E E E E E E E
|-----------------|------------------|-------------------|--------------------|
|-----------------|------------------|-------------------|--------------------|
|---------7-------|--------9--7--(7)-|-(7)----(7)--(7)---|-------7---9-7------|
|-----7-9---9-7---|-----7------------|-----------------0-|-(0)-7---7-----7-7/-|
|---9-----------9-|-(9)--------------|-------------------|--------------------|
|-----------------|------------------|-------------------|--------------------|


  E E E E E   E E  E    +E  E E Q  Q  +E
|--------------------|---------------------|
|--------------------|---------------------|
|-----7-----------11-|-(11)-----9--7--(7)--|
|-9-7---7-9/-12------|------9-7------------|
|--------------------|---------------------|
|--------------------|---------------------|


  +H     +Q   +E  E   +E  E E E E E E E
|-------------------|---------------------|
|-------------------|---------------------|
|-(7)----(7)--(7)---|-------7---9-7-------|
|-----------------0-|-(0)-7---7-----7-7/--|
|-------------------|---------------------|
|-------------------|---------------------|


  E E E E E   E E E   +E  E E Q  Q  +E
|-------------------|--------------------|
|-------------------|--------------------|
|-----7-------------|---------9--7--(7)--|
|-9-7---7-9/-12-----|-----7-9------------|
|-----------------9-|-(9)----------------|
|-------------------|--------------------|


  +H     +Q   +E  E   +E  E E E E E E E
|-------------------|---------------------|
|-------------------|---------------------|
|-(7)----(7)--(7)---|-------7---9-7-------|
|-----------------0-|-(0)-7---7-----7-7/--|
|-------------------|---------------------|
|-------------------|---------------------|


  E E E E E   E E  E    +E  E E Q  Q  +E
|--------------------|--------------------|
|--------------------|--------------------|
|-----7-----------11-|-(11)-----9--7--(7)-|
|-9-7---7-9/-12------|------9-7-----------|
|--------------------|--------------------|
|--------------------|--------------------|


  +H     +Q   +E  E   +E  E E E E E E E
|-------------------|-------------------|
|-------------------|-------------------|
|-(7)----(7)--(7)---|-------7---9-7---9-|
|-----------------0-|-(0)-7---7-------7-|
|-------------------|-----------------5-|
|-------------------|-------------------|


  E E E E E E E E   E E E E E E E E   E E E E E E E E   E E E E E E E E
|-----------------|-----------------|-----------------|-----------------|
|-----------------|-----------------|-----------------|-----------------|
|-9---9-9---9-9---|-9-9---9-9---9-9-|---9-9---9-9---9-|-9---9-9---9-9-9-|
|-7---7-7---7-7---|-7-7---7-7---7-7-|---7-7---7-7---7-|-7---7-7---7-7-7-|
|-5---5-5---5-5---|-5-5---5-5---5-5-|---5-5---5-5---5-|-5---5-5---5-5-5-|
|-----------------|-----------------|-----------------|-----------------|


  E E E E E E E  E    +E   E  Q  Q   E  E
|------------------|-------------9--------|
|------------------|---------10-----10----|
|-9-------7-----11-|-(11)-11-----------11-|
|-7---7-9---9-7----|----------------------|
|-5-9--------------|----------------------|
|------------------|----------------------|


   +E   E  Q  E  E  E  E    +E   Q   Q   E E E
|-------------9----------|---------------------|
|---------10----10-------|----------10---------|
|-(11)-11----------11-11-|-(11)-11------11-9-7-|
|------------------------|---------------------|
|------------------------|---------------------|
|------------------------|---------------------|


   E  E E E E E E E   +E  H    +Q    E    +E   E  Q  Q   E  E
|-------------------|------------------|-------------9--------|
|----10-7---7-5---5-|-(5)-3----(3)-----|---------10-----10----|
|-------------------|---------------11-|-(11)-11-----------11-|
|-------------------|------------------|----------------------|
|-10------7-----5---|------------------|----------------------|
|-------------------|------------------|----------------------|


   +E   E  Q  E  E  E  E    +E   Q   Q   E E E
|-------------9----------|---------------------|
|---------10----10-------|----------10---------|
|-(11)-11----------11-11-|-(11)-11------11-9-7-|
|------------------------|---------------------|
|------------------------|---------------------|
|------------------------|---------------------|


   E  E E E E E E E   +E  Q  Q  Q   E    +E   E  Q  Q   E  E
|-------------------|-----------------|-------------9--------|
|----10-7---7-5---5-|-(5)-3--7--------|---------10-----10----|
|-------------------|-----------7--11-|-(11)-11-----------11-|
|-------------------|-----------------|----------------------|
|-10------7-----5---|-----------------|----------------------|
|-------------------|-----------------|----------------------|


   +E   E  Q  E  E  E  E    +E   Q   Q   E E E
|-------------9----------|---------------------|
|---------10----10-------|----------10---------|
|-(11)-11----------11-11-|-(11)-11------11-9-7-|
|------------------------|---------------------|
|------------------------|---------------------|
|------------------------|---------------------|


   E  E E E E E E E   +E  Q  Q  Q   E    +E   E  Q   Q   E  E
|-------------------|-----------------|-----------------------|
|----10-7---7-5---5-|-(5)-3--7--------|---------10--14--10----|
|-------------------|-----------7--11-|-(11)-11------------11-|
|-------------------|-----------------|-----------------------|
|-10------7-----5---|-----------------|-----------------------|
|-------------------|-----------------|-----------------------|


   +E   E  Q   E  E  E  E    +E   Q   Q   E  E E
|-------------------------|----------------------|
|---------10--14-10-------|----------10----------|
|-(11)-11-----------11-11-|-(11)-11------11-11---|
|-------------------------|----------------------|
|-------------------------|----------------------|
|-------------------------|----------------------|


                                           1/4
   E  E E  E  E E  E  E   E E E E E E E E   E E
|-----------------------|-----------------|------*|
|-----------------------|-----------------|------*|
|-14-14---11-11---11-11-|---9-9---7-7---7-|-7-7--*|
|-12-12----9--9----9--9-|---7-7---5-5---5-|-5-5--*|
|-12-12----9--9----9--9-|---7-7---5-5---5-|-5-5--*|
|-----------------------|-----------------|------*|


Duration Legend
---------------
W - whole; H - half; Q - quarter; E - 8th; S - 16th; T - 32nd; X - 64th; a - acciaccatura
+ - note tied to previous; . - note dotted; .. - note double dotted
Uncapitalized letters represent notes that are staccato (1/2 duration)
Irregular groupings are notated above the duration line
Duration letters will always appear directly above the note/fret number it represents the
duration for.  Duration letters with no fret number below them represent rests.  Multi-
bar rests are notated in the form Wxn, where n is the number of bars to rest for.  Low
melody durations appear below the staff

Tablature Legend
----------------
 h   - hammer-on
 p   - pull-off
 b   - bend
 pb  - pre-bend
 r   - bend release (if no number after the r, then release immediately)
 /\  - slide into or out of (from/to "nowhere")
 s   - legato slide
 S   - shift slide
  - natural harmonic
[n]  - artificial harmonic
n(n) - tapped harmonic
 ~   - vibrato
 tr  - trill
 T   - tap
 TP  - trem. picking
 PM  - palm muting
\n/  - tremolo bar dip; n = amount to dip
 \n  - tremolo bar down
 n/  - tremolo bar up
/n\  - tremolo bar inverted dip
 =   - hold bend; also acts as connecting device for hammers/pulls
 <>  - volume swell (louder/softer)
 x   - on rhythm slash represents muted slash
 o   - on rhythm slash represents single note slash

Misc Legend
-----------
 |  - bar
||  - double bar
||o - repeat start
o|| - repeat end
*|  - double bar (ending)
 :  - bar (freetime)
 $  - Segno
 &  - Coda
Tempo markers -  = BPM(8/16=s8/s16), where s8 = swing 8ths, s16 = swing 16ths


***************************************************************************************
* Generated using Power Tab Editor by Brad Larsen - http://powertab.guitarnetwork.org *
***************************************************************************************

            
            
Suggest correction
Creating personal tab
Creating personal tab
You can edit any tab online and save it as your Personal.

You can edit, replace or remove any tab part or add personal notes – all changes will be seen only by you.

Personal tabs can be accessed anytime from any device, even offline.
Learn more »
Give kudos to tab author, rate the tab!
1 2 3 4 5
comments
print report bad tab
guest
Wanna post a correction for this tab? Suggest correction