Oops, an error
Loading. Please wait.

Chl03K tab

version 2
version 2

Whole song

Interactive

733 views 6 this week
1 commentread comment
1 2 3 4 5
1 last vote to show rating
add to favorites
×
Save as Personal and add changes to this tab that will be seen only by you. Learn more ›
×
You can save this tab as Personal to edit and correct it or add notes. All changes will be seen only by you. Learn more »
launch autoscroll
font size
0
reset
how to read this tab
guitar tuner
edit
Autoscroll
slow
fast
+/-
esc
set tempo
stop
Author
@chl03k - Modern Baseball

There is a shuffle rhythm throughout the whole song until the time change.

Guitar 1
eb |--------------------------------------------------
Bb |-----0-----0-----0-----0-----0-----0-----0-----0--
Gb |-----9-----9-----9-----9-----9-----9-----9-----9--
Db |-----9-----9-----9-----9-----9-----9-----9-----9--
Ab |--7-----------6-----------------------------------
Eb |--------------------------9-----------7-----------

Guitar 2
eb |-----7--------------0-----------------------------
Bb |--------10-9--7--9-----9--------9-----10s12-10s12-
Gb |-----------------------------9-----9--------------
Db |--------------------------------------------------
Ab |--------------------------------------------------
Eb |--------------------------------------------------

eb |-----7--------------0-----------------------------
Bb |--------10-9--7--9-----9--------9-----10----9-----
Gb |-----------------------------9-----9-----9-----9--
Db |--------------------------------------------------
Ab |--------------------------------------------------
Eb |--------------------------------------------------

eb |-----7--------------0--------------0-----0---0--0-
Bb |--------10-9--7--9-----9-----5--0--7s9---7s9-7--5-
Gb |--------------------------------------------------
Db |--------------------------------------------------
Ab |--------------------------------------------------
Eb |--------------------------------------------------


Guitar 1
eb |--------------------------------------------------
Bb |-----0-----0-----0-----0-----0-----0-----0-----0--
Gb |-----9-----9-----9-----9-----9-----9-----9-----9--
Db |-----9-----9-----9-----9-----9-----9-----9-----9--
Ab |--7-----------6-----------------------------------
Eb |--------------------------9-----------7-----------

Guitar 2
eb |-----7--------------0-----------------------------
Bb |--------10-9--7--9-----9--------9-----10s12-10s12-
Gb |-----------------------------9-----9--------------
Db |--------------------------------------------------
Ab |--------------------------------------------------
Eb |--------------------------------------------------

eb |-----7--------------0-----------------------------
Bb |--------10-9--7--9-----9--------9-----10----9-----
Gb |-----------------------------9-----9-----9-----9--
Db |--------------------------------------------------
Ab |--------------------------------------------------
Eb |--------------------------------------------------

eb |-----7--------------0-----------------------------
Bb |--------10-9--7--9-----9--------9-----10----9-----
Gb |-----------------------------9-----9-----9-----9--
Db |--------------------------------------------------
Ab |--------------------------------------------------
Eb |--------------------------------------------------

eb |--------------------------------------------------
Bb |--7-----7-----7-----7--7--9--9--9--9--9--9--9--9--
Gb |--------------------------------------------------
Db |--------------------------------------------------
Ab |--------------------------------------------------
Eb |--------------------------------------------------


Guitar 1
eb |--0--0--0--0--0--0--0--0--0--0--0--0--0--0--0--0--
Bb |--0--0--0--0--0--0--0--0--0--0--0--0--0--0--0--0--
Gb |--9--9--9--9--9--9--9--9--8--8--8--8--8--8--8--8--
Db |--9--9--9--9--9--9--9--9--9--9--9--9--9--9--9--9--
Ab |--7--7--7--7--7--7--7--7--6--6--6--6--6--6--6--6--
Eb |--0--0--0--0--0--0--0--0--0--0--0--0--0--0--0--0--
                                                         x3  
eb |--0--0--0--0--0--0--0--0--0--0--0--0--0--0--0--0--
Bb |--0--0--0--0--0--0--0--0--0--0--0--0--0--0--0--0--
Gb |--2--2--2--2--2--2--2--2--2--2--2--2--2--2--2--2--
Db |--2--2--2--2--2--2--2--2--2--2--2--2--2--2--2--2--
Ab |--0--0--0--0--0--0--0--0--0--0--0--0--0--0--0--0--
Eb |--------------------------------------------------

Guitar 2
eb |--0--0--0--0--0--0--0--0--0--0--0--0--0--0--0--0--
Bb |--9--9--9--7--7--7--7--7--4--4--4--5--5--5--5--5--
Gb |--------------------------------------------------
Db |--------------------------------------------------
Ab |--------------------------------------------------
Eb |--------------------------------------------------
                                                         x3
eb |--0--0--0--0--0--0--0--0--0--0--0--0--0--0--0--0--
Bb |--10-10-10-10-10-10-10-10-4--4--4--5--5--5--5--5--
Gb |--------------------------------------------------
Db |--------------------------------------------------
Ab |--------------------------------------------------
Eb |--------------------------------------------------

Guitar 1
eb |--0--0--0--0--0--0--0--0--0--0--0--0--0--0--0--0--
Bb |--0--0--0--0--0--0--0--0--0--0--0--0--0--0--0--0--
Gb |--9--9--9--9--9--9--9--9--8--8--8--8--8--8--8--8--  x2
Db |--9--9--9--9--9--9--9--9--9--9--9--9--9--9--9--9--
Ab |--7--7--7--7--7--7--7--7--6--6--6--6--6--6--6--6--
Eb |--0--0--0--0--0--0--0--0--0--0--0--0--0--0--0--0--

Guitar 2
eb |--0--0--0--0--0--0--0--0--0--0--0--0--0--0--0--0--
Bb |--9--9--9--7--7--7--7--7--4--4--4--5--5--5--5--5--
Gb |--------------------------------------------------   x2  
Db |--------------------------------------------------
Ab |--------------------------------------------------
Eb |--------------------------------------------------

Guitar 1
eb |--0--0--0--0--0--0--0--0--0--0--0--0--0--0--0--0--
Bb |--0--0--0--0--0--0--0--0--0--0--0--0--0--0--0--0--
Gb |--2--2--2--2--2--2--2--2--2--2--2--2--2--2--2--2--
Db |--2--2--2--2--2--2--2--2--2--2--2--2--2--2--2--2--
Ab |--0--0--0--0--0--0--0--0--0--0--0--0--0--0--0--0--
Eb |--------------------------------------------------

Guitar 2
eb |--0--0--0--0--0--0--0--0--0--0--0--0--0--0--0--0--
Bb |--9--9--9--10-10-10-10-10-12-12-12-12-12-12-12-14-
Gb |--------------------------------------------------
Db |--------------------------------------------------
Ab |--------------------------------------------------
Eb |--------------------------------------------------

eb |--0--0--0--0--0--0--0--0--
Bb |--12-12-12-12-12-12-12-12-
Gb |--------------------------
Db |--------------------------
Ab |--------------------------
Eb |--------------------------


Guitar 1
eb |--------------------------------------------------
Bb |-----0-----0-----0-----0-----0-----0-----0-----0--
Gb |-----9-----9-----9-----9-----9-----9-----9-----9--
Db |-----9-----9-----9-----9-----9-----9-----9-----9--
Ab |--7-----------6-----------------------------------
Eb |--------------------------9-----------7-----------

eb |--------------------------------------------------
Bb |-----0-----0-----0-----0-----0-----0--------------
Gb |-----9-----9-----9-----9-----9-----9--------------
Db |-----9-----9-----9-----9-----9-----9--------------
Ab |--7-----------6-----------------------------------
Eb |--------------------------9-----------7-----------

            
            
Suggest correction
Creating personal tab
Creating personal tab
You can edit any tab online and save it as your Personal.

You can edit, replace or remove any tab part or add personal notes – all changes will be seen only by you.

Personal tabs can be accessed anytime from any device, even offline.
Learn more »
Give kudos to tab author, rate the tab!
1 2 3 4 5
comments
print report bad tab
1 comment total.
0 reply
milleralex 10 Feb 22, 2016 12:25 PM

good job tabbing the lead part

guest
You may want to rate the tab now too:
select rating
Wanna post a correction for this tab? Suggest correction