Oops, an error
Loading. Please wait.

Hiding tab

version 1
version 1

Whole song

Interactive

6,520 views 60 this week
3 commentsread comments
1 2 3 4 5
x 10
add to favorites
×
Save as Personal and add changes to this tab that will be seen only by you. Learn more ›
×
You can save this tab as Personal to edit and correct it or add notes. All changes will be seen only by you. Learn more »
launch autoscroll
font size
0
reset
how to read this tab
guitar tuner
edit
Autoscroll
slow
fast
+/-
esc
set tempo
stop
Author
Difficulty
--------------------------
 Modern Baseball ~ Hiding
--------------------------
Album:  Holy Ghost  (2016)

Tuning: Standard

No Capo

Mainly fingerpicked




INTRO   (0:00)

E|----------------------------|----------------------------|
B|-----------------------8----|----------------------------|
G|-----0-----------0----------|-----0--------------0-------|
D|-----------9----------------|-----------9--10-------9----|
A|--10----10----10----10------|--10----10-------10---------|
E|----------------------------|----------------------------|

E|----------------------------|----------------------------|
B|-----------------------8----|----------------------------|
G|-----0-----------0----------|-----0--------------0-------|
D|-----------9----------------|-----------9--10-------9----|
A|--10----10----10----10------|--10----10-------10---------|
E|----------------------------|----------------------------|



VERSE   (0:06)

  "Take the train to Frankford..."
E|----------------------------|----------------------------|
B|-----------------------8----|----------------------------|
G|-----0-----------0----------|-----0--------------0-------|
D|-----------9----------------|-----------9--10-------9----|
A|--10----10----10----10------|--10----10-------10---------|
E|----------------------------|----------------------------|

E|----------------------------|----------------------------|
B|-----------8----------------|-----------7----------------|
G|-----0-----------0----------|-----------------7----------|
D|-----------------------9----|-----5-----------------5----|
A|--7-----7-----7-----7-------|--6-----6-----6-----6-------|
E|----------------------------|----------------------------|

E|----------------------------|----------------------------|
B|-----------5-----------4----|-----------4-----------0----|
G|-----------------5----------|-----------------0--2-------|
D|-----5----------------------|-----5----------------------|
A|--3-----3-----3-----3-------|--3-----3-----3-------------|
E|----------------------------|----------------------------|

E|----------------------------|----------------------------|
B|----------------------------|----------------------------|
G|-----0--------------0-------|----------------------------|
D|-----------9--10-------9----|-----------9----------------|
A|--10----10-------10---------|-----10----------10---------|
E|----------------------------|--8-----8-----8-----8--7----|

  "Drank a lot..."
E|----------------------------|----------------------------|
B|-----------------------8----|----------------------------|
G|-----0-----------0----------|-----0--------------0-------|
D|-----------9----------------|-----------9--10-------9----|
A|--10----10----10----10------|--10----10-------10---------|
E|----------------------------|----------------------------|

E|----------------------------|----------------------------|
B|-----------8----------------|-----------7----------------|
G|-----0-----------0----------|-----------------7----------|
D|-----------------------9----|-----5-----------------5----|
A|--7-----7-----7-----7-------|--6-----6-----6-----6-------|
E|----------------------------|----------------------------|

E|----------------------------|----------------------------|
B|-----------5-----------4----|-----------4-----------0----|
G|-----------------5----------|-----------------0--2-------|
D|-----5----------------------|-----5----------------------|
A|--3-----3-----3-----3-------|--3-----3-----3-------------|
E|----------------------------|----------------------------|

E|----------------------------|----------------------------|
B|----------------------------|----------------------------|
G|-----0--------------0-------|----------------------------|
D|-----------9--10-------9----|-----------9----------------|
A|--10----10-------10---------|-----10----------10---------|
E|----------------------------|--8-----8-----8-----8--7----|

  "Knowing we should really..."
E|----------------------------|----------------------------|
B|----------------------------|----------------------------|
G|--0-------------------------|--0-------------------------|
D|--10------------------------|--9-------------------------|
A|--10------------------------|--10------------------------|
E|----------------------------|----------------------------|

E|----------------------------|----------------------------|
B|-----------------------8----|----------------------------|
G|-----0-----------0----------|-----0--------------0-------|
D|-----------9----------------|-----------9--10-------9----|
A|--10----10----10----10------|--10----10-------10---------|
E|----------------------------|----------------------------|

E|----------------------------|----------------------------|
B|-----------------------8----|----------------------------|
G|-----0-----------0----------|-----0--------------0-------|
D|-----------9----------------|-----------9--10-------9----|
A|--10----10----10----10------|--10----10-------10---------|
E|----------------------------|----------------------------|

  "Made mistakes..."
E|----------------------------|----------------------------|
B|-----------------------8----|----------------------------|
G|-----0-----------0----------|-----0--------------0-------|
D|-----------9----------------|-----------9--10-------9----|
A|--10----10----10----10------|--10----10-------10---------|
E|----------------------------|----------------------------|

E|----------------------------|----------------------------|
B|-----------8----------------|-----------7----------------|
G|-----0-----------0----------|-----------------7----------|
D|-----------------------9----|-----5-----------------5----|
A|--7-----7-----7-----7-------|--6-----6-----6-----6-------|
E|----------------------------|----------------------------|

E|----------------------------|----------------------------|
B|-----------5-----------4----|-----------4-----------0----|
G|-----------------5----------|-----------------0--2-------|
D|-----5----------------------|-----5----------------------|
A|--3-----3-----3-----3-------|--3-----3-----3-------------|
E|----------------------------|----------------------------|

E|----------------------------|----------------------------|
B|----------------------------|----------------------------|
G|-----0--------------0-------|----------------------------|
D|-----------9--10-------9----|-----------9----------------|
A|--10----10-------10---------|-----10----------10---------|
E|----------------------------|--8-----8-----8-----8--7----|

  "Still some nights..."
E|----------------------------|----------------------------|
B|-----------------------8----|----------------------------|
G|-----0-----------0----------|-----0--------------0-------|
D|-----------9----------------|-----------9--10-------9----|
A|--10----10----10----10------|--10----10-------10---------|
E|----------------------------|----------------------------|

E|----------------------------|----------------------------|
B|-----------8----------------|-----------7----------------|
G|-----0-----------0----------|-----------------7----------|
D|-----------------------9----|-----5-----------------5----|
A|--7-----7-----7-----7-------|--6-----6-----6-----6-------|
E|----------------------------|----------------------------|

E|----------------------------|----------------------------|
B|-----------5-----------4----|-----------4-----------0----|
G|-----------------5----------|-----------------0--2-------|
D|-----5----------------------|-----5----------------------|
A|--3-----3-----3-----3-------|--3-----3-----3-------------|
E|----------------------------|----------------------------|

E|----------------------------|----------------------------|
B|----------------------------|----------------------------|
G|-----0--------------0-------|----------------------------|
D|-----------9--10-------9----|-----------9----------------|
A|--10----10-------10---------|-----10----------10---------|
E|----------------------------|--8-----8-----8-----8--7----|

  "Swinging open doors..."
E|----------------------------|----------------------------|
B|----------------------------|----------------------------|
G|--0-------------------------|--0-------------------------|
D|--10------------------------|--9-------------------------|
A|--10------------------------|--10------------------------|
E|----------------------------|----------------------------|

E|----------------------------|----------------------------|
B|-----------------------0----|----------------------------|
G|-----------0----------------|-----------0----------------|
D|-----0-----------0----------|-----0----------------------|
A|----------------------------|----------------------------|
E|--3-----3-----------3-------|--------3-------------------|



CHORUS   (1:09)

  "Pouring pewter..."
E|----------------------------|----------------------------|
B|-----------------------0----|----------------------------|
G|-----0-----------0----------|----------------------------|
D|-----------10---------------|----------------------------|
A|----------------------------|----------------------------|
E|--10----10----------10------|----------------------------|

E|----------------------------|----------------------------|
B|-----------------------0----|----------------------------|
G|-----0-----------0----------|----------------------------|
D|-----------10---------------|----------------------------|
A|----------------------------|----------------------------|
E|--8-----8-----------8-------|----------------------------|

E|----------------------------|----------------------------|
B|-----------0----------------|-----------0----------------|
G|-----0----------------------|-----0----------------------|
D|----------------------------|----------------------------|
A|--7-----7-------------------|--6-----6-------------------|
E|----------------------------|----------------------------|

E|----------------------------|----------------------------|
B|-----------3----------------|-----------3----------------|
G|-----0----------------------|-----0----------------------|
D|--0-----0-------------------|----------------------------|
A|----------------------------|--3-----3-------------------|
E|----------------------------|----------------------------|

  "My straight line..."
E|----------------------------|----------------------------|
B|-----------------------0----|----------------------------|
G|-----0-----------0----------|----------------------------|
D|-----------10---------------|----------------------------|
A|----------------------------|----------------------------|
E|--10----10----------10------|----------------------------|

E|----------------------------|----------------------------|
B|-----------------------0----|----------------------------|
G|-----0-----------0----------|----------------------------|
D|-----------10---------------|----------------------------|
A|----------------------------|----------------------------|
E|--8-----8-----------8-------|----------------------------|

E|----------------------------|----------------------------|
B|-----------3----------------|-----------3----------------|
G|-----0----------------------|-----0----------------------|
D|----------------------------|----------------------------|
A|----------------------------|--2-----2-------------------|
E|--3-----3-------------------|----------------------------|

E|----------------------------|----------------------------|
B|-----------3--------1--0----|----------------------------|
G|-----0----------------------|----------------------------|
D|----------------------------|----------------------------|
A|--3-----3-------------------|----------------------------|
E|----------------------------|----------------------------|

  "Of all I can undo..."
E|----------------------------|----------------------------|
B|----------------------------|----------------------------|
G|--0-------------------------|--0-------------------------|
D|--10------------------------|--9-------------------------|
A|--10------------------------|--10------------------------|
E|----------------------------|----------------------------|

E|----------------------------|----------------------------|
B|-----------------------8----|----------------------------|
G|-----0-----------0----------|-----0--------------0-------|
D|-----------9----------------|-----------9--10-------9----|
A|--10----10----10----10------|--10----10-------10---------|
E|----------------------------|----------------------------|

E|----------------------------|----------------------------|
B|-----------------------8----|----------------------------|
G|-----0-----------0----------|-----0--------------0-------|
D|-----------9----------------|-----------9--10-------9----|
A|--10----10----10----10------|--10----10-------10---------|
E|----------------------------|----------------------------|



VERSE   (1:43)

  "Entertain the cancer..."
E|----------------------------|----------------------------|
B|-----------------------8----|----------------------------|
G|-----0-----------0----------|-----0--------------0-------|
D|-----------9----------------|-----------9--10-------9----|
A|--10----10----10----10------|--10----10-------10---------|
E|----------------------------|----------------------------|

E|----------------------------|----------------------------|
B|-----------8----------------|-----------7----------------|
G|-----0-----------0----------|-----------------7----------|
D|-----------------------9----|-----5-----------------5----|
A|--7-----7-----7-----7-------|--6-----6-----6-----6-------|
E|----------------------------|----------------------------|

E|----------------------------|----------------------------|
B|-----------5-----------4----|-----------4-----------0----|
G|-----------------5----------|-----------------0--2-------|
D|-----5----------------------|-----5----------------------|
A|--3-----3-----3-----3-------|--3-----3-----3-------------|
E|----------------------------|----------------------------|

E|----------------------------|----------------------------|
B|----------------------------|----------------------------|
G|-----0--------------0-------|----------------------------|
D|-----------9--10-------9----|-----------9----------------|
A|--10----10-------10---------|-----10----------10---------|
E|----------------------------|--8-----8-----8-----8--7----|

  "Backs of hands..."
E|----------------------------|----------------------------|
B|-----------------------8----|----------------------------|
G|-----0-----------0----------|-----0--------------0-------|
D|-----------9----------------|-----------9--10-------9----|
A|--10----10----10----10------|--10----10-------10---------|
E|----------------------------|----------------------------|

E|----------------------------|----------------------------|
B|-----------8----------------|-----------7----------------|
G|-----0-----------0----------|-----------------7----------|
D|-----------------------9----|-----5-----------------5----|
A|--7-----7-----7-----7-------|--6-----6-----6-----6-------|
E|----------------------------|----------------------------|

E|----------------------------|----------------------------|
B|-----------5-----------4----|-----------4-----------0----|
G|-----------------5----------|-----------------0--2-------|
D|-----5----------------------|-----5----------------------|
A|--3-----3-----3-----3-------|--3-----3-----3-------------|
E|----------------------------|----------------------------|

E|----------------------------|----------------------------|
B|----------------------------|----------------------------|
G|-----0--------------0-------|----------------------------|
D|-----------9--10-------9----|-----------9----------------|
A|--10----10-------10---------|-----10----------10---------|
E|----------------------------|--8-----8-----8-----8--7----|



PRE-CHORUS   (2:07)

  "A call from high school..."
E|----------------------------|----------------------------|
B|----------------------------|----------------------------|
G|-----0--------------0-------|-----0--------------0-------|
D|-----------4----------------|-----------4----------------|
A|--5-----5--------5-----5----|--5-----5--------5-----5----|
E|----------------------------|----------------------------|

E|----------------------------|----------------------------|
B|-----------3-----------1----|-----------0----------------|
G|-----0--------------0-------|--------0-----------0-------|
D|----------------------------|----------------------------|
A|--3-----3--------3----------|-----3-----------3-----3----|
E|----------------------------|----------------------------|

E|----------------------------|----------------------------|
B|-----------8----------------|-----------8----------------|
G|-----0--------------0-------|-----0--------------0-------|
D|----------------------------|----------------------------|
A|--7-----7--------7-----7----|--6-----6--------6-----6----|
E|----------------------------|----------------------------|

E|----------------------------|----------------------------|
B|-----------8----------------|-----------8----------------|
G|-----0--------------0-------|-----0--------------0-------|
D|----------------------------|----------------------------|
A|--5-----5--------5-----5----|----------------------------|
E|----------------------------|--8-----8--------8-----8----|

  "...pulled and all at once..."
E|----------------------------|----------------------------|
B|-----------3-----------1----|-----------0----------------|
G|-----0--------------0-------|--------0-----------0-------|
D|----------------------------|----------------------------|
A|--3-----3--------3----------|-----3-----------3-----3----|
E|----------------------------|----------------------------|

E|----------------------------|----------------------------|
B|-----------3-----------3----|----------------------------|
G|-----0--------------0-------|--------0-----------0-------|
D|----------------------------|-----------4----------------|
A|--5-----5--------5----------|-----5-----------5-----5----|
E|----------------------------|----------------------------|

E|----------------------------|----------------------------|
B|-----------8----------------|-----------8----------------|
G|-----0--------------0-------|-----0--------------0-------|
D|----------------------------|----------------------------|
A|--7-----7--------7-----7----|--6-----6--------6-----6----|
E|----------------------------|----------------------------|

E|----------------------------|----------------------------|
B|-----------8----------------|-----------8----------------|
G|-----0--------------0-------|-----0--------------0-------|
D|----------------------------|----------------------------|
A|--5-----5--------5-----5----|----------------------------|
E|----------------------------|--9-----9--------9-----9----|

  "...leave our shoes..."
E|----------------------------|----------------------------|
B|-----------3-----------1----|-----------0----------------|
G|-----0--------------0-------|--------0-----------0-------|
D|----------------------------|----------------------------|
A|--3-----3--------3----------|-----3-----------3-----3----|
E|----------------------------|----------------------------|

E|----------------------------|----------------------------|
B|-----------3-----------1----|-----------0----------------|
G|-----0--------------0-------|--------0-----------0-------|
D|----------------------------|----------------------------|
A|--3-----3--------3----------|-----3-----------3-----3----|
E|----------------------------|----------------------------|



CHORUS   (2:38)

  "Floor and future..."
E|----------------------------|----------------------------|
B|----------------------------|----------------------------|
G|--7--7--7--7--7--7--7--7----|--7--7--7--7--7--7--7--7----|
D|--7--7--7--7--7--7--7--7----|--7--7--7--7--7--7--7--7----|
A|--5--5--5--5--5--5--5--5----|--5--5--5--5--5--5--5--5----|
E|----------------------------|----------------------------|

E|----------------------------|----------------------------|
B|----------------------------|----------------------------|
G|--4--4--4--4--4--4--4--4----|--4--4--4--4--4--4--4--4----|
D|--5--5--5--5--5--5--5--5----|--5--5--5--5--5--5--5--5----|
A|--3--3--3--3--3--3--3--3----|--3--3--3--3--3--3--3--3----|
E|----------------------------|----------------------------|

E|----------------------------|----------------------------|
B|----------------------------|----------------------------|
G|--9--9--9--9--9--9--9--9----|--8--8--8--8--8--8--8--8----|
D|--9--9--9--9--9--9--9--9----|--9--9--9--9--9--9--9--9----|
A|--7--7--7--7--7--7--7--7----|--6--6--6--6--6--6--6--6----|
E|----------------------------|----------------------------|

E|----------------------------|----------------------------|
B|----------------------------|----------------------------|
G|--7--7--7--7--7--7--7--7----|--4--4--4--4--4--4--4--4----|
D|--7--7--7--7--7--7--7--7----|--5--5--5--5--5--5--5--5----|
A|--5--5--5--5--5--5--5--5----|--3--3--3--3--3--3--3--3----|
E|----------------------------|----------------------------|

  "...floral sutures..."
E|----------------------------|----------------------------|
B|----------------------------|----------------------------|
G|--7--7--7--7--7--7--7--7----|--7--7--7--7--7--7--7--7----|
D|--7--7--7--7--7--7--7--7----|--7--7--7--7--7--7--7--7----|
A|--5--5--5--5--5--5--5--5----|--5--5--5--5--5--5--5--5----|
E|----------------------------|----------------------------|

E|----------------------------|----------------------------|
B|----------------------------|----------------------------|
G|--4--4--4--4--4--4--4--4----|--4--4--4--4--4--X--X--4----|
D|--5--5--5--5--5--5--5--5----|--5--5--5--5--5--X--X--5----|
A|--3--3--3--3--3--3--3--3----|--3--3--3--3--3--X--X--3----|
E|----------------------------|----------------------------|

  "...hiding or have..."
E|--3-----------3-----3--3----|--3-----------3-----3--3----|
B|--3-----------3-----3--3----|--3-----------3-----3--3----|
G|--0-----------0-----0--0----|--0-----------0-----0--0----|
D|--0-----------0-----0--0----|--0-----------0-----0--0----|
A|--2-----------2-----2--2----|--2-----------2-----2--2----|
E|--3-----------3-----3--3----|----------------------------|

E|--3-----------3-----3--3----|--3--3--3-----3-----3--3----|
B|--3-----------3-----3--3----|--3--3--3-----3-----3--3----|
G|--0-----------0-----0--0----|--0--0--0-----0-----0--0----|
D|--2-----------2-----2--2----|--2--2--2-----2-----2--2----|
A|--3-----------3-----3--3----|--3--3--3-----3-----3--3----|
E|----------------------------|----------------------------|

  "Let me learn here..."
E|--3-----------3-----3--3----|--3-----------3-----3--3----|
B|--3-----------3-----3--3----|--3-----------3-----3--3----|
G|--0-----------0-----0--0----|--0-----------0-----0--0----|
D|--0-----------0-----0--0----|--0-----------0-----0--0----|
A|--2-----------2-----2--2----|--2-----------2-----2--2----|
E|--3-----------3-----3--3----|----------------------------|

E|--3-----------3-----3--3----|--3--3--3-----3-----3--3----|
B|--3-----------3-----3--3----|--3--3--3-----3-----3--3----|
G|--0-----------0-----0--0----|--0--0--0-----0-----0--0----|
D|--2-----------2-----2--2----|--2--2--2-----2-----2--2----|
A|--3-----------3-----3--3----|--3--3--3-----3-----3--3----|
E|----------------------------|----------------------------|

  "...all I can undo..."
E|--3-----------3-----3--3----|--3-----------3-----3--3----|
B|--3-----------3-----3--3----|--3-----------3-----3--3----|
G|--0-----------0-----0--0----|--0-----------0-----0--0----|
D|--0-----------0-----0--0----|--0-----------0-----0--0----|
A|--2-----------2-----2--2----|--2-----------2-----2--2----|
E|--3-----------3-----3--3----|----------------------------|

E|--3-----------3-----3--3----|--3--3--3-----3-----3--3----|
B|--3-----------3-----3--3----|--3--3--3-----3-----3--3----|
G|--0-----------0-----0--0----|--0--0--0-----0-----0--0----|
D|--2-----------2-----2--2----|--2--2--2-----2-----2--2----|
A|--3-----------3-----3--3----|--3--3--3-----3-----3--3----|
E|----------------------------|----------------------------|

  "...all I can undo..."
E|--3-------------------------|--3-------------------------|----------------------------|
B|--3-------------------------|--3-------------------------|----------------------------|
G|--2-------------------------|--0-------------------------|--4-------------------------|
D|--0-------------------------|--2-------------------------|--5-------------------------|
A|----------------------------|--3-------------------------|--5-------------------------|
E|----------------------------|----------------------------|--3-------------------------|




Lyrics:
Take the train to Frankford 
I won’t answer when they call 
I guess that’s just my gift to myself 
Drank a lot and danced to The Cure 
Holding on for dear life 
To the frayed edge of a feeling we misplaced years ago 
And knowing we should really get back home 

Made mistakes 
The plants died young, like all good things 
But I wish my small self had known 
How much water to use 
Still some nights I find 
The ideas that bring me rest 
Are the ones that used to prod and pester and keep me up 
Swinging open doors I swore I’d shut 

Pouring pewter 
Amassing coins to displace debt to you 
My straight-line shooter 
Let me learn here 
I am in pursuit of all I can undo 

Entertain the cancer 
We all answer upwards either way 
The waiting game is tied again 
Backs of hands and phrases 
Misplaced gazes 
Things we still deny to selves and hesitate to talk about 

A call from high school two drinks in 
I smiled but you could not see 
Your tin can cell receiver Hummed its New York static song 
The lever pulled and all at once 
The floor was false 
The center seam divided 
Lace and well-pressed cotton 
Found the flood we’d since forgotten 
We still leave our shoes at the door 
Before we wring out our wet clothes 
Across your floor and future 

Stitch the gaps that destiny assumed 
With floral sutures 
Are you hiding or have I abandoned you?





            
            
Suggest correction
Creating personal tab
Creating personal tab
You can edit any tab online and save it as your Personal.

You can edit, replace or remove any tab part or add personal notes – all changes will be seen only by you.

Personal tabs can be accessed anytime from any device, even offline.
Learn more »
comments
print report bad tab
3 comments total.
0 reply
gothmonkey 373 Jun 03, 2016 08:55 AM

Dude, this is fantastic!

0 reply
Russcool 5,582 Jun 03, 2016 07:51 PM

Thanks, boss!

0 reply
antonhybautista2 10 Apr 13, 2017 11:02 AM

One small note error in 2nd bar here;
E|----------------------------|----------------------------|
B|-----------8----------------|-----------7----------------|
G|-----0-----------0----------|-----------------8----------|
D|-----------------------9----|-----5-----------------5----|
A|--7-----7-----7-----7-------|--6-----6-----6-----6-------|
E|----------------------------|----------------------------|
Other than that perfect

guest
You may want to rate the tab now too:
select rating
Wanna post a correction for this tab? Suggest correction